  0
SECTION
  2
HEADER
  9
$ACADVER
  1
AC1009
  9
$INSBASE
 10
0
 20
0
 30
0
  9
$EXTMIN
 10
0
 20
0
  9
$EXTMAX
 10
420
 20
297
  9
$LIMMIN
 10
0
 20
0
  9
$LIMMAX
 10
420
 20
297
  9
$LTSCALE
 40
1
  0
ENDSEC
  0
SECTION
  2
TABLES
  0
TABLE
  2
LTYPE
 70
     9
  0
LTYPE
  2
CONTINUOUS
 70
    64
  3
実線
 72
    65
 73
     0
 40
0.0
  0
LTYPE
  2
DASHED1
 70
    64
  3
--  --  --  --  --  --  --  --  
 72
    65
 73
     2
 40
2.5
 49
1.25
 49
-1.25
  0
LTYPE
  2
DASHED2
 70
    64
  3
----    ----    ----    ----    
 72
    65
 73
     2
 40
5.0
 49
2.5
 49
-2.5
  0
LTYPE
  2
DASHED3
 70
    64
  3
------  ------  ------  ------  
 72
    65
 73
     2
 40
5.0
 49
3.75
 49
-1.25
  0
LTYPE
  2
CENTER1
 70
    64
  3
----- - ----- - ----- - ----- - 
 72
    65
 73
     4
 40
10.0
 49
6.25
 49
-1.25
 49
1.25
 49
-1.25
  0
LTYPE
  2
CENTER2
 70
    64
  3
----------  --  ----------  --  
 72
    65
 73
     4
 40
20.0
 49
12.5
 49
-2.5
 49
2.5
 49
-2.5
  0
LTYPE
  2
PHANTOM1
 70
    64
  3
--- - - --- - - --- - - --- - - 
 72
    65
 73
     6
 40
10.0
 49
3.25
 49
-1.25
 49
1.25
 49
-1.25
 49
1.25
 49
-1.25
  0
LTYPE
  2
PHANTOM2
 70
    64
  3
--------  -  -  --------  -  -  
 72
    65
 73
     6
 40
20.0
 49
10.0
 49
-2.5
 49
1.25
 49
-2.5
 49
1.25
 49
-2.5
  0
LTYPE
  2
DOT
 70
    64
  3
-   -   -   -   -   -   -   -   
 72
    65
 73
     2
 40
2.5
 49
0.625
 49
-1.875
  0
LTYPE
  2
DUMMY
 70
    64
  3
ダミー
 72
    65
 73
     0
 40
0.0
  0
LTYPE
  2
RAND1
 70
    64
  3
ランダム線1
 72
    65
 73
     4
 40
10.0
 49
1.0
 49
-2.0
 49
3.0
 49
-4.0
  0
LTYPE
  2
RAND2
 70
    64
  3
ランダム線2
 72
    65
 73
     4
 40
14.0
 49
2.0
 49
-3.0
 49
4.0
 49
-5.0
  0
LTYPE
  2
RAND3
 70
    64
  3
ランダム線3
 72
    65
 73
     4
 40
18.0
 49
3.0
 49
-4.0
 49
5.0
 49
-6.0
  0
LTYPE
  2
RAND4
 70
    64
  3
ランダム線4
 72
    65
 73
     4
 40
22.0
 49
4.0
 49
-5.0
 49
6.0
 49
-7.0
  0
LTYPE
  2
RAND5
 70
    64
  3
ランダム線5
 72
    65
 73
     4
 40
26.0
 49
5.0
 49
-6.0
 49
7.0
 49
-8.0
  0
LTYPE
  2
LONG1
 70
    64
  3
----------  --  ----------  --  
 72
    65
 73
     4
 40
40.0
 49
32.5
 49
-2.5
 49
2.5
 49
-2.5
  0
LTYPE
  2
LONG2
 70
    64
  3
--------  -  -  --------  -  -  
 72
    65
 73
     6
 40
40.0
 49
30.0
 49
-2.5
 49
1.25
 49
-2.5
 49
1.25
 49
-2.5
  0
LTYPE
  2
LONG3
 70
    64
  3
+++++++++++++++..+++++++++++++++
 72
    65
 73
     2
 40
40.0
 49
37.5
 49
-2.5
  0
LTYPE
  2
LONG4
 70
    64
  3
+++++++++++++++..+++++++++++++++
 72
    65
 73
     2
 40
80.0
 49
75.0
 49
-5.0
  0
LTYPE
  2
LONG5
 70
    64
  3
----------  --  ----------  --  
 72
    65
 73
     4
 40
60.0
 49
37.5
 49
-7.5
 49
7.5
 49
-7.5
  0
LTYPE
  2
dashed
 70
   64
  3
-------   -------------   ------
 72
   65
 73
    2
 40
7.5
 49
6
 49
-1.5
  0
LTYPE
  2
dashed_spaced
 70
   64
  3
----        --------        ----
 72
   65
 73
    2
 40
12
 49
6
 49
-6
  0
LTYPE
  2
long_dashed_dotted
 70
   64
  3
------------- --- --------------
 72
   65
 73
    4
 40
15.25
 49
12
 49
-1.5
 49
0.25
 49
-1.5
  0
LTYPE
  2
long_dashed_double-dotted
 70
   64
  3
----------- --- --- ------------
 72
   65
 73
    6
 40
17
 49
12
 49
-1.5
 49
0.25
 49
-1.5
 49
0.25
 49
-1.5
  0
LTYPE
  2
long_dashed_triplicate-dotted
 70
   64
  3
--------- --- --- --- ----------
 72
   65
 73
    8
 40
18.75
 49
12
 49
-1.5
 49
0.25
 49
-1.5
 49
0.25
 49
-1.5
 49
0.25
 49
-1.5
  0
LTYPE
  2
dotted
 70
   64
  3
   -       -       -       -    
 72
   65
 73
    2
 40
1.75
 49
0.25
 49
-1.5
  0
LTYPE
  2
chain
 70
   64
  3
-------------- -- --------------
 72
   65
 73
    4
 40
18.5
 49
12
 49
-1.5
 49
3.5
 49
-1.5
  0
LTYPE
  2
chain_double_dash
 70
   64
  3
------------ -- -- -------------
 72
   65
 73
    6
 40
23.5
 49
12
 49
-1.5
 49
3.5
 49
-1.5
 49
3.5
 49
-1.5
  0
LTYPE
  2
dashed_dotted
 70
   64
  3
-----------     -     ----------
 72
   65
 73
    4
 40
9.25
 49
6
 49
-1.5
 49
0.25
 49
-1.5
  0
LTYPE
  2
double-dashed_dotted
 70
   64
  3
------   -----------   -   -----
 72
   65
 73
    6
 40
16.75
 49
6
 49
-1.5
 49
6
 49
-1.5
 49
0.25
 49
-1.5
  0
LTYPE
  2
dashed_double-dotted
 70
   64
  3
---------    -    -    ---------
 72
   65
 73
    6
 40
11
 49
6
 49
-1.5
 49
0.25
 49
-1.5
 49
0.25
 49
-1.5
  0
LTYPE
  2
double-dashed_double-dotted
 70
   64
  3
-----   ---------   -   -   ----
 72
   65
 73
    8
 40
18.5
 49
6
 49
-1.5
 49
6
 49
-1.5
 49
0.25
 49
-1.5
 49
0.25
 49
-1.5
  0
LTYPE
  2
dashed_triplicate-dotted
 70
   64
  3
-------    -    -    -    ------
 72
   65
 73
    8
 40
12.75
 49
6
 49
-1.5
 49
0.25
 49
-1.5
 49
0.25
 49
-1.5
 49
0.25
 49
-1.5
  0
LTYPE
  2
double-dashed_triplicate-dotted
 70
   64
  3
-----  ---------  -  -  -  -----
 72
   65
 73
   10
 40
20.25
 49
6
 49
-1.5
 49
6
 49
-1.5
 49
0.25
 49
-1.5
 49
0.25
 49
-1.5
 49
0.25
 49
-1.5
  0
LTYPE
  2
undefined
 70
   64
  3
--------------------------------
 72
   65
 73
    0
 40
0
  0
ENDTAB
  0
TABLE
  2
STYLE
  5
3
100
AcDbSymbolTable
 70
     1
  0
STYLE
  5
10
100
AcDbSymbolTableRecord
100
AcDbTextStyleTableRecord
  2
STANDARD
 70
     0
 40
0.0
 41
1.0
 50
0.0
 71
     0
 42
0.2
  3
txt
  4
bigfont.shx
  0
STYLE
  5
26
100
AcDbSymbolTableRecord
100
AcDbTextStyleTableRecord
  2
TATEGAKI
 70
    68
 40
0.0
 41
1.0
 50
0.0
 71
     0
 42
1.0
  3
txt
  4
bigfont.shx
  0
ENDTAB
  0
TABLE
  2
LAYER
 70
   11
  0
LAYER
  2
_0-0_
 70
   64
 62
    7
  6
CONTINUOUS
  0
LAYER
  2
_0-1_
 70
   64
 62
    7
  6
CONTINUOUS
  0
LAYER
  2
_1-0_
 70
   64
 62
    7
  6
CONTINUOUS
  0
LAYER
  2
_1-1_
 70
   64
 62
    7
  6
CONTINUOUS
  0
LAYER
  2
_1-2_
 70
   64
 62
    7
  6
CONTINUOUS
  0
LAYER
  2
_1-3_
 70
   64
 62
    7
  6
CONTINUOUS
  0
LAYER
  2
_1-4_
 70
   64
 62
    7
  6
CONTINUOUS
  0
LAYER
  2
_1-5_
 70
   64
 62
    7
  6
CONTINUOUS
  0
LAYER
  2
_1-6_
 70
   64
 62
    7
  6
CONTINUOUS
  0
LAYER
  2
_1-7_
 70
   64
 62
    7
  6
CONTINUOUS
  0
LAYER
  2
ADD_LINE
 70
   64
 62
    7
  6
CONTINUOUS
  0
ENDTAB
  0
ENDSEC
  0
SECTION
  2
BLOCKS
  0
ENDSEC
  0
SECTION
  2
ENTITIES
  0
LINE
  8
_0-0_
  6
CONTINUOUS
 62
    5
 10
12.432428308435391
 20
278.51351351351354
 11
412.43244892842063
 21
278.51351351351354
  0
LINE
  8
_0-0_
  6
CONTINUOUS
 62
    5
 10
412.43244892842063
 20
8.5135135135135158
 11
12.432428308435391
 21
8.5135135135135158
  0
LINE
  8
_0-0_
  6
CONTINUOUS
 62
    5
 10
412.43244892842063
 20
28.513511451515001
 11
12.432415936444272
 21
28.513511451515001
  0
LINE
  8
_0-0_
  6
CONTINUOUS
 62
    5
 10
377.43248192039698
 20
8.5135135135135158
 11
377.43248192039698
 21
28.513511451515001
  0
LINE
  8
_0-0_
  6
CONTINUOUS
 62
    5
 10
142.70271507469386
 20
28.513511451515001
 11
142.70271507469386
 21
8.5135135135135158
  0
LINE
  8
_0-0_
  6
CONTINUOUS
 62
    5
 10
220.54054054054055
 20
28.513511451515001
 11
220.54054054054055
 21
8.5135135135135158
  0
LINE
  8
_0-0_
  6
CONTINUOUS
 62
    5
 10
142.70271507469386
 20
18.513512482514244
 11
220.54054054054055
 21
18.513512482514244
  0
LINE
  8
_0-0_
  6
CONTINUOUS
 62
    5
 10
402.16218690614443
 20
24.324325870823216
 11
389.59456985061234
 21
11.756758303255651
  0
TEXT
  8
_0-0_
 62
    7
 10
147.56756962956609
 20
22.702702702702709
 40
2.5
 41
1
 50
0
  1
図名
  0
TEXT
  8
_0-0_
 62
    7
 10
147.56756962956609
 20
12.972972972972968
 40
2.5
 41
1
 50
0
  1
縮尺
  0
TEXT
  8
_0-0_
 62
    7
 10
382.77784605284
 20
21.243871740392734
 40
2.5
 41
1
 50
0
  1
ＮＯ
  0
TEXT
  8
_0-0_
 62
    7
 10
20.270270012520456
 20
22.702702702702709
 40
2.5
 41
1
 50
0
  1
Ｆ形
  0
TEXT
  8
_0-0_
 62
    7
 10
389.99062615471917
 20
16.178650211643514
 40
2.5
 41
1
 50
0
  1
Ｆ
  0
TEXT
  8
_0-0_
 62
    7
 10
171.37221877639359
 20
12.362518826046511
 40
2.5
 41
1
 50
0
  1
1/5
  0
TEXT
  8
_1-0_
 62
    7
 10
139.41949851822659
 20
48.176294280035577
 40
2.5
 41
1
 50
0
  1
棟部分のルーフィングは、両方向へそれぞれ250ｍｍ以上重ね合わせること。
  0
TEXT
  8
_1-0_
 62
    7
 10
139.50729016729753
 20
44.064970279032622
 40
2.5
 41
1
 50
0
  1
隅棟部分のルーフィングは、重ね貼りの上に両方向へそれぞれ250ｍｍ以上増し貼りをすること。
  0
TEXT
  8
_1-4_
 62
    7
 10
45.397582698512736
 20
13.77361400707349
 40
2.5
 41
1
 50
0
  1
片流れ　－　1
  0
LINE
  8
_1-1_
  6
CONTINUOUS
 62
    7
 10
80.080159004162738
 20
116.03086557138013
 11
78.84905928261503
 21
118.76663448238098
  0
LINE
  8
_1-1_
  6
CONTINUOUS
 62
    7
 10
78.84905928261503
 20
118.76663448238098
 11
83.226306861003977
 21
120.7363915624591
  0
LINE
  8
_1-1_
  6
CONTINUOUS
 62
    7
 10
83.226306861003977
 20
120.7363915624591
 11
84.457394210560565
 21
118.00062265145826
  0
LINE
  8
_1-1_
  6
CONTINUOUS
 62
    7
 10
84.457394210560565
 20
118.00062265145826
 11
80.080159004162738
 21
116.03086557138013
  0
LINE
  8
_1-1_
  6
CONTINUOUS
 62
    7
 10
131.14775461491024
 20
139.01128235901737
 11
129.91666726535362
 21
141.7470512700182
  0
LINE
  8
_1-1_
  6
CONTINUOUS
 62
    7
 10
129.91666726535362
 20
141.7470512700182
 11
134.29390247175144
 21
143.71680835009633
  0
LINE
  8
_1-1_
  6
CONTINUOUS
 62
    7
 10
134.29390247175144
 20
143.71680835009633
 11
135.52498982130805
 21
140.9810394390955
  0
LINE
  8
_1-1_
  6
CONTINUOUS
 62
    7
 10
135.52498982130805
 20
140.9810394390955
 11
131.14775461491024
 21
139.01128235901737
  0
LINE
  8
_1-1_
  6
CONTINUOUS
 62
    7
 10
131.14775461491024
 20
139.01128235901737
 11
134.29390247175144
 21
143.71680835009633
  0
LINE
  8
_1-1_
  6
CONTINUOUS
 62
    7
 10
182.21535022565769
 20
161.99172389063688
 11
180.98426287610113
 21
164.72749280163771
  0
LINE
  8
_1-1_
  6
CONTINUOUS
 62
    7
 10
180.98426287610113
 20
164.72749280163771
 11
185.36149808249894
 21
166.69723750972474
  0
LINE
  8
_1-1_
  6
CONTINUOUS
 62
    7
 10
185.36149808249894
 20
166.69723750972474
 11
186.5925854320555
 21
163.96146859872385
  0
LINE
  8
_1-1_
  6
CONTINUOUS
 62
    7
 10
186.5925854320555
 20
163.96146859872385
 11
182.21535022565769
 21
161.99172389063688
  0
LINE
  8
_1-1_
  6
CONTINUOUS
 62
    7
 10
182.21535022565769
 20
161.99172389063688
 11
185.36149808249894
 21
166.69723750972474
  0
LINE
  8
_1-1_
  6
CONTINUOUS
 62
    7
 10
233.28294583640519
 20
184.97215305026526
 11
232.05185848684857
 21
187.70792196126609
  0
LINE
  8
_1-1_
  6
CONTINUOUS
 62
    7
 10
232.05185848684857
 20
187.70792196126609
 11
236.42909369324639
 21
189.67766666935313
  0
LINE
  8
_1-1_
  6
CONTINUOUS
 62
    7
 10
236.42909369324639
 20
189.67766666935313
 11
237.66018104280295
 21
186.94189775835224
  0
LINE
  8
_1-1_
  6
CONTINUOUS
 62
    7
 10
237.66018104280295
 20
186.94189775835224
 11
233.28294583640519
 21
184.97215305026526
  0
LINE
  8
_1-1_
  6
CONTINUOUS
 62
    7
 10
233.28294583640519
 20
184.97215305026526
 11
236.42909369324639
 21
189.67766666935313
  0
LINE
  8
_1-2_
  6
CONTINUOUS
 62
    3
 10
82.281507386236242
 20
126.11294960854229
 11
83.609987049982024
 21
126.5547039238928
  0
LINE
  8
_1-2_
  6
CONTINUOUS
 62
    3
 10
80.952582330809719
 20
125.03873910653638
 11
82.163800262608689
 21
125.44149690583959
  0
LINE
  8
_1-2_
  6
CONTINUOUS
 62
    3
 10
82.281507386236242
 20
126.11294960854229
 11
82.163800262608689
 21
125.44149690583959
  0
LINE
  8
_1-2_
  6
CONTINUOUS
 62
    3
 10
80.952582330809719
 20
125.03873910653638
 11
80.571623979880655
 21
123.01517623702624
  0
LINE
  8
_1-2_
  6
CONTINUOUS
 62
    3
 10
83.861484885708379
 20
124.5306461747374
 11
84.24105757363067
 21
124.65686522826357
  0
LINE
  8
_1-2_
  6
CONTINUOUS
 62
    7
 10
83.609987049982024
 20
126.5547039238928
 11
84.24105757363067
 21
124.65686522826357
  0
LINE
  8
_1-2_
  6
CONTINUOUS
 62
    3
 10
83.861484885708379
 20
124.5306461747374
 11
84.934309724707518
 21
121.30435255934465
  0
LINE
  8
_1-2_
  6
CONTINUOUS
 62
    7
 10
84.552905982097727
 20
118.64832113118798
 11
86.071171989804654
 21
119.15318497330158
  0
LINE
  8
_1-2_
  6
CONTINUOUS
 62
    3
 10
83.609987049982024
 20
126.5547039238928
 11
84.24105757363067
 21
124.65686522826357
  0
LINE
  8
_1-2_
  6
CONTINUOUS
 62
    7
 10
84.24105757363067
 20
124.65686522826357
 11
86.071171989804654
 21
119.15318497330158
  0
LINE
  8
ADD_LINE
  6
DOT
 62
    4
 10
83.122431623461765
 20
127.02488907486408
 11
83.798189779078299
 21
127.24958917779905
  0
LINE
  8
ADD_LINE
  6
DOT
 62
    4
 10
83.420670841683872
 20
127.12405058378511
 11
134.29390247175144
 21
143.71680835009633
  0
LINE
  8
_1-2_
  6
CONTINUOUS
 62
    3
 10
133.3800329748131
 20
149.09871109634844
 11
134.71101178076748
 21
149.53281952117953
  0
LINE
  8
_1-2_
  6
CONTINUOUS
 62
    3
 10
132.04494666780295
 20
148.03213411287084
 11
133.25844104597019
 21
148.42792648116685
  0
LINE
  8
_1-2_
  6
CONTINUOUS
 62
    3
 10
133.3800329748131
 20
149.09871109634844
 11
133.25844104597019
 21
148.42792648116685
  0
LINE
  8
_1-2_
  6
CONTINUOUS
 62
    3
 10
132.04494666780295
 20
148.03213411287084
 11
131.65238338919232
 21
146.0107982017644
  0
LINE
  8
_1-2_
  6
CONTINUOUS
 62
    3
 10
134.95087994482998
 20
147.50736373702622
 11
135.33117020823795
 21
147.63139294812208
  0
LINE
  8
_1-2_
  6
CONTINUOUS
 62
    7
 10
134.71101178076748
 20
149.53281952117953
 11
135.33117020823795
 21
147.63139294812208
  0
LINE
  8
_1-2_
  6
CONTINUOUS
 62
    3
 10
134.95087994482998
 20
147.50736373702622
 11
136.00514679713152
 21
144.27494598602328
  0
LINE
  8
_1-2_
  6
CONTINUOUS
 62
    7
 10
134.29390247175144
 20
143.71680835009633
 11
135.60852550542967
 21
141.62115388826146
  0
LINE
  8
_1-2_
  6
CONTINUOUS
 62
    7
 10
135.60852550542967
 20
141.62115388826146
 11
137.12963707109688
 21
142.11728310463602
  0
LINE
  8
_1-2_
  6
CONTINUOUS
 62
    3
 10
70.766016828539875
 20
119.84108005221839
 11
69.793405117707948
 21
124.78309665378089
  0
LINE
  8
_1-2_
  6
CONTINUOUS
 62
    3
 10
72.708345204278885
 20
126.78567662633156
 11
131.65238338919232
 21
146.0107982017644
  0
LINE
  8
_1-2_
  6
CONTINUOUS
 62
    3
 10
70.766016828539875
 20
119.84108005221839
 11
72.239162184589304
 21
120.48434935912294
  0
LINE
  8
_1-2_
  6
CONTINUOUS
 62
    3
 10
73.11540845649597
 20
123.76290226505623
 11
136.00514679713152
 21
144.27494598602328
  0
LINE
  8
_1-2_
  6
CONTINUOUS
 62
    3
 10
72.428577368816491
 20
122.89066451827624
 11
72.239162184589304
 21
120.48434935912294
  0
LINE
  8
_1-2_
  6
CONTINUOUS
 62
    3
 10
134.71101178076748
 20
149.53281952117953
 11
135.33117020823795
 21
147.63139294812208
  0
LINE
  8
_1-2_
  6
CONTINUOUS
 62
    7
 10
135.33117020823795
 20
147.63139294812208
 11
137.12963707109688
 21
142.11728310463602
  0
LINE
  8
_1-2_
  6
CONTINUOUS
 62
    3
 10
184.44762858556055
 20
172.07912788398568
 11
185.77860739151498
 21
172.51326105279907
  0
LINE
  8
_1-2_
  6
CONTINUOUS
 62
    3
 10
183.11254227855045
 20
171.01256327249922
 11
184.32603665671769
 21
171.40836801278635
  0
LINE
  8
_1-2_
  6
CONTINUOUS
 62
    3
 10
184.44762858556055
 20
172.07912788398568
 11
184.32603665671769
 21
171.40836801278635
  0
LINE
  8
_1-2_
  6
CONTINUOUS
 62
    3
 10
183.11254227855045
 20
171.01256327249922
 11
182.71997899993977
 21
168.99122736139282
  0
LINE
  8
_1-2_
  6
CONTINUOUS
 62
    3
 10
186.01847555557748
 20
170.48779289665464
 11
186.3987658189854
 21
170.61183447974162
  0
LINE
  8
_1-2_
  6
CONTINUOUS
 62
    7
 10
185.77860739151498
 20
172.51326105279907
 11
186.3987658189854
 21
170.61183447974162
  0
LINE
  8
_1-2_
  6
CONTINUOUS
 62
    3
 10
186.01847555557748
 20
170.48779289665464
 11
187.07274240787899
 21
167.25538751764282
  0
LINE
  8
_1-2_
  6
CONTINUOUS
 62
    7
 10
185.36149808249894
 20
166.69723750972474
 11
186.67612111617711
 21
164.60159541988099
  0
LINE
  8
_1-2_
  6
CONTINUOUS
 62
    7
 10
186.67612111617711
 20
164.60159541988099
 11
188.19723268184435
 21
165.09771226426443
  0
LINE
  8
_1-2_
  6
CONTINUOUS
 62
    3
 10
121.83362481127848
 20
142.82150921184675
 11
120.86098835646429
 21
147.76352581340925
  0
LINE
  8
_1-2_
  6
CONTINUOUS
 62
    3
 10
123.77592844303523
 20
149.76610578595992
 11
182.71997899993977
 21
168.99122736139282
  0
LINE
  8
_1-2_
  6
CONTINUOUS
 62
    3
 10
121.83362481127848
 20
142.82150921184675
 11
123.30675779533675
 21
143.4647785187513
  0
LINE
  8
_1-2_
  6
CONTINUOUS
 62
    3
 10
124.18301643923455
 20
146.74333142468458
 11
187.07274240787899
 21
167.25538751764282
  0
LINE
  8
_1-2_
  6
CONTINUOUS
 62
    3
 10
123.49617297956395
 20
145.87109367790461
 11
123.30675779533675
 21
143.4647785187513
  0
LINE
  8
_1-2_
  6
CONTINUOUS
 62
    3
 10
185.77860739151498
 20
172.51326105279907
 11
186.3987658189854
 21
170.61183447974162
  0
LINE
  8
_1-2_
  6
CONTINUOUS
 62
    7
 10
186.3987658189854
 20
170.61183447974162
 11
188.19723268184435
 21
165.09771226426443
  0
LINE
  8
_1-2_
  6
CONTINUOUS
 62
    3
 10
235.51522419630805
 20
195.05955704361406
 11
236.84620300226243
 21
195.49369021242745
  0
LINE
  8
_1-2_
  6
CONTINUOUS
 62
    3
 10
234.1801378892979
 20
193.99299243212761
 11
235.39363226746514
 21
194.38879717241474
  0
LINE
  8
_1-2_
  6
CONTINUOUS
 62
    3
 10
235.51522419630805
 20
195.05955704361406
 11
235.39363226746514
 21
194.38879717241474
  0
LINE
  8
_1-2_
  6
CONTINUOUS
 62
    3
 10
234.1801378892979
 20
193.99299243212761
 11
233.78757461068727
 21
191.9716565210212
  0
LINE
  8
_1-2_
  6
CONTINUOUS
 62
    3
 10
237.08607116632493
 20
193.46822205628303
 11
237.46636142973284
 21
193.59226363937
  0
LINE
  8
_1-2_
  6
CONTINUOUS
 62
    7
 10
236.84620300226243
 20
195.49369021242745
 11
237.46636142973284
 21
193.59226363937
  0
LINE
  8
_1-2_
  6
CONTINUOUS
 62
    3
 10
237.08607116632493
 20
193.46822205628303
 11
238.14033801862644
 21
190.2358166772712
  0
LINE
  8
_1-2_
  6
CONTINUOUS
 62
    7
 10
236.42909369324639
 20
189.67766666935313
 11
237.74371672692462
 21
187.58202457950938
  0
LINE
  8
_1-2_
  6
CONTINUOUS
 62
    7
 10
237.74371672692462
 20
187.58202457950938
 11
239.2648282925918
 21
188.07814142389282
  0
LINE
  8
_1-2_
  6
CONTINUOUS
 62
    3
 10
172.90119567804368
 20
165.80192599948401
 11
171.92860871119399
 21
170.74394260104651
  0
LINE
  8
_1-2_
  6
CONTINUOUS
 62
    3
 10
172.90119567804368
 20
165.80192599948401
 11
174.3743534060842
 21
166.44522005037084
  0
LINE
  8
_1-2_
  6
CONTINUOUS
 62
    3
 10
175.25058730599977
 20
169.72374821232188
 11
238.14033801862644
 21
190.2358166772712
  0
LINE
  8
_1-2_
  6
CONTINUOUS
 62
    3
 10
174.56376859031144
 20
168.85152283753303
 11
174.3743534060842
 21
166.44522005037084
  0
LINE
  8
_1-2_
  6
CONTINUOUS
 62
    3
 10
236.84620300226243
 20
195.49369021242745
 11
237.46636142973284
 21
193.59226363937
  0
LINE
  8
_1-2_
  6
CONTINUOUS
 62
    7
 10
237.46636142973284
 20
193.59226363937
 11
239.2648282925918
 21
188.07814142389282
  0
LINE
  8
_1-2_
  6
CONTINUOUS
 62
    3
 10
63.214586461405133
 20
114.08202952830581
 11
84.934309724707518
 21
121.30435255934465
  0
LINE
  8
_1-2_
  6
CONTINUOUS
 62
    3
 10
63.214586461405133
 20
117.24354339813266
 11
80.571623979880655
 21
123.01517623702624
  0
LINE
  8
ADD_LINE
  6
DOT
 62
    4
 10
63.21459883339628
 20
114.08201715631468
 11
83.226306861003977
 21
120.7363915624591
  0
LINE
  8
_1-0_
  6
CONTINUOUS
 62
    7
 10
245.38370580658039
 20
189.75949501869854
 11
245.3836934345893
 21
189.75949501869854
  0
LINE
  8
_1-0_
  6
CONTINUOUS
 62
    7
 10
63.214586461405133
 20
107.78340554115948
 11
231.38369673378691
 21
183.45950392653214
  0
LINE
  8
_1-0_
  6
CONTINUOUS
 62
    7
 10
245.38368106259816
 20
189.75949501869854
 11
245.3836934345893
 21
189.75949501869854
  0
LINE
  8
_1-0_
  6
CONTINUOUS
 62
    7
 10
84.552905982097727
 20
118.64832113118798
 11
83.226306861003977
 21
120.7363915624591
  0
ARC
  8
_1-2_
  6
CONTINUOUS
 62
    3
 10
74.503780929310551
 20
121.04946479804821
 40
6.01062568458351
 50
107.38015747070314
 51
141.59829711914062
  0
ARC
  8
_1-2_
  6
CONTINUOUS
 62
    3
 10
73.425487670231178
 20
122.81218897852752
 40
0.9999999162313101
 50
108.06419372558594
 51
175.49896240234378
  0
ARC
  8
_1-2_
  6
CONTINUOUS
 62
    3
 10
125.57137654005804
 20
144.02989395767656
 40
6.01062568458351
 50
107.38015747070314
 51
141.59829711914062
  0
ARC
  8
_1-2_
  6
CONTINUOUS
 62
    3
 10
124.49308328097864
 20
145.79261813815589
 40
0.9999999162313101
 50
108.06419372558594
 51
175.49896240234378
  0
ARC
  8
_1-2_
  6
CONTINUOUS
 62
    3
 10
176.6389721508055
 20
167.01032311730495
 40
6.01062568458351
 50
107.38015747070314
 51
141.59829711914062
  0
ARC
  8
_1-2_
  6
CONTINUOUS
 62
    3
 10
175.56067889172613
 20
168.77303492579313
 40
0.9999999162313101
 50
108.06419372558594
 51
175.49896240234378
  0
LINE
  8
ADD_LINE
  6
DOT
 62
    4
 10
245.38370580658039
 20
222.55285556940169
 11
245.38370580658039
 21
148.47631646790418
  0
LINE
  8
_1-5_
  6
CONTINUOUS
 62
    7
 10
222.81657944170158
 20
179.92565519842228
 11
222.93968887217414
 21
179.65207875914302
  0
LINE
  8
_1-5_
  6
CONTINUOUS
 62
    7
 10
241.61657944170159
 20
188.71461524333159
 11
239.81657944170158
 21
188.71461524333159
  0
LINE
  8
_1-5_
  6
CONTINUOUS
 62
    7
 10
240.11657944170159
 20
188.71461524333159
 11
240.11657944170159
 21
187.38168157527514
  0
LINE
  8
_1-5_
  6
CONTINUOUS
 62
    7
 10
222.81657944170158
 20
179.92565519842228
 11
239.81657944170158
 21
187.5756572370544
  0
LINE
  8
ADD_LINE
  6
DOT
 62
    4
 10
240.79883733930066
 20
203.46344205294787
 11
240.79883733930066
 21
175.25950449754367
  0
LINE
  8
ADD_LINE
  6
DOT
 62
    4
 10
240.79883733930066
 20
203.46344205294787
 11
240.79883733930066
 21
229.70488530634685
  0
LINE
  8
ADD_LINE
  6
DOT
 62
    4
 10
240.79883733930066
 20
230.9769160938387
 11
240.79883733930066
 21
210.0234857323502
  0
LINE
  8
ADD_LINE
  6
DOT
 62
    4
 10
238.09340444112223
 20
206.81937121431417
 11
243.48937875319393
 21
206.81937121431417
  0
ARC
  8
_1-6_
  6
CONTINUOUS
 62
    3
 10
240.84699429703934
 20
201.52366952417299
 40
2
 50
66.037511025421807
 51
114.96708551077444
  0
LINE
  8
_1-6_
  6
CONTINUOUS
 62
    3
 10
240.00279919936602
 20
203.33677035894868
 11
224.46526137662161
 21
196.10236121396716
  0
LINE
  8
_1-6_
  6
CONTINUOUS
 62
    3
 10
239.9739050247228
 20
206.63256481494437
 11
221.89883733930066
 21
198.21666028416581
  0
ARC
  8
_1-6_
  6
CONTINUOUS
 62
    3
 10
240.81810012239612
 20
204.81946398016868
 40
2
 50
66.037511025421807
 51
114.96708551077444
  0
LINE
  8
_1-6_
  6
CONTINUOUS
 62
    3
 10
223.04590319952902
 20
190.38095380958504
 11
224.46526137662161
 21
196.10236121396716
  0
ARC
  8
_1-6_
  6
CONTINUOUS
 62
    3
 10
221.88120752584493
 20
190.66988976737082
 40
1.2000000000000002
 50
284.81194969683048
 51
346.06742092223328
  0
LINE
  8
_1-6_
  6
CONTINUOUS
 62
    3
 10
220.54664804206988
 20
189.07573964976689
 11
222.1879843993257
 21
189.50976565767508
  0
LINE
  8
_1-6_
  6
CONTINUOUS
 62
    3
 10
219.81091176848744
 20
189.80026968350768
 11
221.89883733930066
 21
198.21666028416581
  0
ARC
  8
_1-6_
  6
CONTINUOUS
 62
    3
 10
220.39325960532949
 20
189.65580170461476
 40
0.6
 50
166.06742092223325
 51
284.81194969683054
  0
ARC
  8
_1-6_
  6
CONTINUOUS
 62
    3
 10
259.30744043675662
 20
174.81666028416581
 40
0.6
 50
184.84461930953782
 51
270
  0
LINE
  8
_1-6_
  6
CONTINUOUS
 62
    3
 10
261.33156259858345
 20
174.21666028416581
 11
259.30744043675662
 21
174.21666028416581
  0
ARC
  8
_1-6_
  6
CONTINUOUS
 62
    3
 10
261.33156259858345
 20
174.61666028416579
 40
0.4
 50
270
 51
4.8446193095377375
  0
LINE
  8
_1-6_
  6
CONTINUOUS
 62
    3
 10
259.37462725809382
 20
198.76075365359108
 11
241.63037705450301
 21
206.6470870774092
  0
LINE
  8
_1-6_
  6
CONTINUOUS
 62
    3
 10
259.72880061405004
 20
198.26313902874432
 11
261.73013355564228
 21
174.65044182038275
  0
ARC
  8
_1-6_
  6
CONTINUOUS
 62
    3
 10
259.13094417846173
 20
198.21246672441893
 40
0.6
 50
4.8446193095377126
 51
66.037511025421836
  0
LINE
  8
_1-6_
  6
CONTINUOUS
 62
    3
 10
256.53516145389915
 20
196.73978585485665
 11
241.65927122914624
 21
203.35129262141351
  0
LINE
  8
_1-6_
  6
CONTINUOUS
 62
    3
 10
256.88933480985543
 20
196.24217123000989
 11
258.70958400116831
 21
174.76598797984042
  0
ARC
  8
_1-6_
  6
CONTINUOUS
 62
    3
 10
256.29147837426706
 20
196.1914989256845
 40
0.6
 50
4.8446193095377632
 51
66.037511025421836
  0
LINE
  8
_1-5_
  6
CONTINUOUS
 62
    7
 10
237.79883981369886
 20
196.12844279356918
 11
237.79883981369886
 21
202.12843784477275
  0
LINE
  8
_1-5_
  6
CONTINUOUS
 62
    7
 10
237.79883981369886
 20
202.12843784477275
 11
243.79883486490243
 21
202.12843784477275
  0
LINE
  8
_1-5_
  6
CONTINUOUS
 62
    7
 10
243.79883486490243
 20
202.12843784477275
 11
243.79883486490243
 21
196.12844279356918
  0
LINE
  8
_1-5_
  6
CONTINUOUS
 62
    7
 10
243.79883486490243
 20
196.12844279356918
 11
237.79883981369886
 21
196.12844279356918
  0
LINE
  8
_1-5_
  6
CONTINUOUS
 62
    7
 10
237.79883981369886
 20
202.12843784477275
 11
243.79883486490243
 21
196.12844279356918
  0
LINE
  8
_1-5_
  6
CONTINUOUS
 62
    7
 10
243.79883486490243
 20
202.12843784477275
 11
237.79883981369886
 21
196.12844279356918
  0
LINE
  8
_1-5_
  6
DASHED1
 62
    7
 10
237.19883535978207
 20
198.72844147389014
 11
244.39883931881923
 21
198.72844147389014
  0
LINE
  8
_1-5_
  6
DASHED1
 62
    7
 10
237.19883535978207
 20
199.52843916445178
 11
244.39883931881923
 21
199.52843916445178
  0
LINE
  8
_1-5_
  6
DASHED1
 62
    7
 10
240.29049696767902
 20
199.63676831880144
 11
240.79883733930066
 21
198.22843982429131
  0
LINE
  8
_1-5_
  6
DASHED1
 62
    7
 10
240.79883733930066
 20
198.22843982429131
 11
241.29883898889946
 21
199.62842959677866
  0
LINE
  8
_1-5_
  6
DASHED1
 62
    7
 10
240.29883568970183
 20
199.63676831880144
 11
241.30717771092228
 21
199.63676831880144
  0
LINE
  8
_1-5_
  6
CONTINUOUS
 62
    7
 10
244.19883486490244
 20
195.72844279356917
 11
237.39883981369886
 21
195.72844279356917
  0
LINE
  8
_1-5_
  6
CONTINUOUS
 62
    7
 10
237.39883981369886
 20
200.71263666761902
 11
237.81747203234329
 21
200.71263666761902
  0
LINE
  8
_1-5_
  6
CONTINUOUS
 62
    7
 10
243.79883486490243
 20
200.71263666761902
 11
244.19883486490244
 21
200.71263666761902
  0
LINE
  8
_1-5_
  6
CONTINUOUS
 62
    7
 10
244.19883486490244
 20
200.71263666761902
 11
244.19883486490244
 21
195.72088466170686
  0
LINE
  8
_1-5_
  6
CONTINUOUS
 62
    7
 10
237.39883981369886
 20
195.72088466170686
 11
237.39883981369886
 21
200.71263666761902
  0
LINE
  8
_1-5_
  6
CONTINUOUS
 62
    7
 10
237.39883981369886
 20
199.52843916445178
 11
237.39883981369886
 21
198.72844147389014
  0
LINE
  8
_1-5_
  6
CONTINUOUS
 62
    7
 10
237.19883535978207
 20
199.52843916445178
 11
237.19883535978207
 21
198.72844147389014
  0
LINE
  8
_1-5_
  6
CONTINUOUS
 62
    7
 10
244.39883931881923
 20
199.52843916445178
 11
244.39883931881923
 21
198.72844147389014
  0
LINE
  8
_1-5_
  6
CONTINUOUS
 62
    7
 10
239.81657944170158
 20
195.72844279356917
 11
239.81657944170158
 21
187.5756572370544
  0
LINE
  8
_1-5_
  6
CONTINUOUS
 62
    7
 10
241.61657944170159
 20
195.72844279356917
 11
241.61657944170159
 21
188.05668175515444
  0
LINE
  8
_1-5_
  6
CONTINUOUS
 62
    7
 10
241.81657944170158
 20
195.72844279356917
 11
241.81657944170158
 21
188.47565747689347
  0
LINE
  8
_1-5_
  6
DASHED1
 62
    7
 10
241.29883898889946
 20
206.59098214607315
 11
241.29883898889946
 21
199.62842959677866
  0
LINE
  8
_1-5_
  6
DASHED1
 62
    7
 10
240.29883568970183
 20
206.59098214607315
 11
240.29883568970183
 21
199.63676831880144
  0
LINE
  8
_1-5_
  6
CONTINUOUS
 62
    7
 10
240.67199968621787
 20
207.53927052234005
 11
240.93849237519592
 21
207.53927052234005
  0
LINE
  8
_1-5_
  6
CONTINUOUS
 62
    7
 10
239.798834040103
 20
207.00626040040169
 11
241.79884063849829
 21
207.00626040040169
  0
LINE
  8
_1-5_
  6
CONTINUOUS
 62
    7
 10
239.798834040103
 20
206.55812213762721
 11
239.798834040103
 21
207.00626040040169
  0
LINE
  8
_1-5_
  6
CONTINUOUS
 62
    7
 10
241.79884063849829
 20
206.55812213762721
 11
241.79884063849829
 21
207.00626040040169
  0
ARC
  8
_1-5_
  6
CONTINUOUS
 62
    7
 10
240.79883733930066
 20
206.35296978068041
 40
1.1944762113932017
 50
33.155624389648445
 51
146.84437561035156
  0
LINE
  8
_1-5_
  6
DASHED1
 62
    7
 10
239.798834040103
 20
206.55812213762721
 11
241.79884063849829
 21
206.55812213762721
  0
LINE
  8
_1-2_
  6
CONTINUOUS
 62
    3
 10
174.84354879776498
 20
172.74654731757943
 11
224.87759593994588
 21
189.0655891022636
  0
LINE
  8
_1-2_
  6
CONTINUOUS
 62
    3
 10
224.87759593994588
 20
189.0655891022636
 11
224.94035231868023
 21
189.08605764369321
  0
LINE
  8
_1-2_
  6
CONTINUOUS
 62
    3
 10
224.94035231868023
 20
189.08605764369321
 11
233.78757461068727
 21
191.9716565210212
  0
LINE
  8
_1-0_
  6
CONTINUOUS
 62
    7
 10
228.67337220985939
 20
196.30858780354444
 11
230.44362773042252
 21
190.88099901914583
  0
LINE
  8
_1-0_
  6
CONTINUOUS
 62
    7
 10
224.04022210933741
 20
194.38903553603694
 11
225.69007911836547
 21
189.33058759219796
  0
LINE
  8
_1-0_
  6
CONTINUOUS
 62
    7
 10
224.1492014123053
 20
194.82832915549679
 11
228.67337220985939
 21
196.30858780354444
  0
LINE
  8
_1-0_
  6
CONTINUOUS
 62
    7
 10
225.32137807858811
 20
190.46102193065781
 11
226.70563589126309
 21
189.66182030988207
  0
LINE
  8
_1-0_
  6
CONTINUOUS
 62
    7
 10
224.95018743277029
 20
191.59908938064521
 11
227.72805007979844
 21
189.99528963361172
  0
LINE
  8
_1-0_
  6
CONTINUOUS
 62
    7
 10
224.57899678695279
 20
192.73715683063153
 11
228.75046426833293
 21
190.32875895734094
  0
LINE
  8
_1-0_
  6
CONTINUOUS
 62
    7
 10
224.20780614113508
 20
193.87522428061899
 11
229.77287845686837
 21
190.66222828107064
  0
LINE
  8
_1-0_
  6
CONTINUOUS
 62
    7
 10
224.15416638424449
 20
194.82995363940287
 11
230.31595469109388
 21
191.27244350175388
  0
LINE
  8
_1-0_
  6
CONTINUOUS
 62
    7
 10
225.17541612247945
 20
195.16409525882597
 11
229.9447640452768
 21
192.41051095173995
  0
LINE
  8
_1-0_
  6
CONTINUOUS
 62
    7
 10
226.19666586071529
 20
195.49823687824858
 11
229.57357339945941
 21
193.54857840172619
  0
LINE
  8
_1-0_
  6
CONTINUOUS
 62
    7
 10
227.21791559895186
 20
195.83237849767167
 11
229.20238275364218
 21
194.68664585171325
  0
LINE
  8
_1-0_
  6
CONTINUOUS
 62
    7
 10
228.23916533718869
 20
196.16652011709476
 11
228.83119210782434
 21
195.8247133017008
  0
LINE
  8
_1-5_
  6
CONTINUOUS
 62
    7
 10
234.0035626573964
 20
185.95356535161574
 11
234.31292429564598
 21
185.9013431770486
  0
LINE
  8
_1-5_
  6
CONTINUOUS
 62
    7
 10
234.31292429564598
 20
185.9013431770486
 11
234.57972628440228
 21
186.1209955076018
  0
LINE
  8
_1-5_
  6
DASHED1
 62
    7
 10
232.39801225225494
 20
191.47855017530662
 11
234.0035626573964
 21
185.95356535161574
  0
LINE
  8
_1-5_
  6
DASHED1
 62
    7
 10
232.96873220316286
 20
191.66469915387503
 11
234.57972628440228
 21
186.1209955076018
  0
LINE
  8
_1-5_
  6
DASHED1
 62
    7
 10
232.48178300420807
 20
191.1902827819367
 11
233.0514142198964
 21
191.38015572983576
  0
LINE
  8
_1-5_
  6
DASHED1
 62
    7
 10
232.81690312799395
 20
190.03707711655451
 11
233.43088793188963
 21
190.24173459385602
  0
LINE
  8
_1-5_
  6
DASHED1
 62
    7
 10
232.60827424153911
 20
190.81080906994345
 11
233.16312092782505
 21
190.99575796537209
  0
LINE
  8
_1-5_
  6
DASHED1
 62
    7
 10
232.7347654788702
 20
190.43133535795022
 11
233.27482763575364
 21
190.61134782891727
  0
LINE
  8
_1-5_
  6
DASHED1
 62
    7
 10
232.9286098359226
 20
189.65267935209084
 11
233.49824105161093
 21
189.8425522999899
  0
LINE
  8
_1-5_
  6
DASHED1
 62
    7
 10
233.04031654385119
 20
189.26826921563602
 11
233.60994775953958
 21
189.45814216353509
  0
LINE
  8
_1-5_
  6
DASHED1
 62
    7
 10
233.15202325177984
 20
188.88387145117233
 11
233.72165446746817
 21
189.07374439907142
  0
LINE
  8
_1-5_
  6
DASHED1
 62
    7
 10
233.26372995970848
 20
188.49947368670865
 11
233.83336117539682
 21
188.68934663460772
  0
LINE
  8
_1-5_
  6
DASHED1
 62
    7
 10
233.37543666763708
 20
188.11506355025384
 11
233.94506788332546
 21
188.3049364981529
  0
LINE
  8
_1-5_
  6
DASHED1
 62
    7
 10
233.48714337556572
 20
187.73066578579017
 11
234.05677459125405
 21
187.92053873368923
  0
LINE
  8
_1-5_
  6
DASHED1
 62
    7
 10
233.59885008349437
 20
187.34626802132647
 11
234.1684812991827
 21
187.53614096922556
  0
LINE
  8
_1-5_
  6
DASHED1
 62
    7
 10
233.71055679142302
 20
186.96185788487165
 11
234.28018800711135
 21
187.15173083277074
  0
LINE
  8
_1-5_
  6
DASHED1
 62
    7
 10
233.82226349935161
 20
186.57746012040798
 11
234.39189471504
 21
186.76733306830704
  0
LINE
  8
_1-5_
  6
DASHED1
 62
    7
 10
233.93397020728025
 20
186.19306235594431
 11
234.50360142296859
 21
186.38293530384337
  0
LINE
  8
_1-5_
  6
CONTINUOUS
 62
    7
 10
232.49470308982845
 20
191.50192305621982
 11
232.49742492787743
 21
191.4925698309242
  0
ARC
  8
_1-5_
  6
CONTINUOUS
 62
    7
 10
232.7135636129492
 20
191.56524290683214
 40
0.5657173169625772
 50
23.4754702598987
 51
192.65290865747838
  0
LINE
  8
_1-5_
  6
CONTINUOUS
 62
    7
 10
256.44015974526377
 20
227.91633228344011
 11
258.13309352376882
 21
227.91633228344011
  0
LINE
  8
_1-4_
  6
CONTINUOUS
 62
    7
 10
240.66463385316072
 20
207.03498462719006
 11
251.65791503717676
 21
237.23880080909464
  0
LINE
  8
_1-4_
  6
CONTINUOUS
 62
    7
 10
251.65791503717676
 20
237.23880080909464
 11
255.65790348998502
 21
237.23880080909464
  0
LINE
  8
_1-5_
  6
CONTINUOUS
 62
    7
 10
247.714593485428
 20
203.94299088588699
 11
256.44015974526377
 21
227.91633228344011
  0
LINE
  8
_1-4_
  6
CONTINUOUS
 62
    7
 10
227.59540434768547
 20
193.19828902872462
 11
214.88195653335433
 21
228.12819517468563
  0
LINE
  8
_1-4_
  6
CONTINUOUS
 62
    7
 10
214.88195653335433
 20
228.12819517468563
 11
211.55464434725423
 21
228.12819517468563
  0
LINE
  8
_1-4_
  6
CONTINUOUS
 62
    7
 10
239.85219019416883
 20
200.51945641353683
 11
223.79599290964228
 21
244.63349002583055
  0
LINE
  8
_1-4_
  6
CONTINUOUS
 62
    7
 10
223.79599290964228
 20
244.63349002583055
 11
219.28711327053901
 21
244.63349002583055
  0
LINE
  8
_1-4_
  6
CONTINUOUS
 62
    7
 10
223.00416830828368
 20
239.34632164534992
 11
218.46451019359384
 21
239.34632164534992
  0
LINE
  8
_1-4_
  6
CONTINUOUS
 62
    7
 10
237.39883981369886
 20
199.79729198330887
 11
223.00416830828368
 21
239.34632164534992
  0
TEXT
  8
_1-4_
 62
    7
 10
256.50631327197652
 20
236.22042995295817
 40
2.5
 41
1
 50
0
  1
パッキン付きステンレスネジ
  0
TEXT
  8
_1-4_
 62
    7
 10
198.59327327025153
 20
243.29481641468684
 40
2.5
 41
1
 50
0
  1
棟補強芯材40ｘ40
  0
TEXT
  8
_1-4_
 62
    7
 10
205.30464434725423
 20
237.86563610684857
 40
2.5
 41
1
 50
0
  1
棟補強金具
  0
TEXT
  8
_1-4_
 62
    7
 10
258.77206096390825
 20
226.67823426039394
 40
2.5
 41
1
 50
0
  1
片流れ冠瓦
  0
TEXT
  8
_1-4_
 62
    7
 10
200.36724250079959
 20
227.00727549117204
 40
2.5
 41
1
 50
0
  1
シーラー
  0
TEXT
  8
_0-0_
 62
    7
 10
31.231870393495313
 20
18.589955922719582
 40
2.5
 41
1
 50
0
  1
鉄骨造
  0
TEXT
  8
_1-4_
 62
    7
 10
399.59824433197849
 20
13.997444977631432
 40
2.5
 41
1
 50
0
  1
41
  0
LINE
  8
ADD_LINE
  6
DOT
 62
    4
 10
60.581612148675731
 20
124.86480941452294
 11
60.581612148675731
 21
67.454986250576937
  0
LINE
  8
_1-7_
  6
CONTINUOUS
 62
    4
 10
224.61911136951045
 20
175.98672454337083
 11
230.60049653981071
 21
181.96810971367108
  0
LINE
  8
_1-7_
  6
CONTINUOUS
 62
    4
 10
219.47651675569887
 20
173.67255705430588
 11
225.45790069966966
 21
179.65394099827671
  0
LINE
  8
_1-7_
  6
CONTINUOUS
 62
    4
 10
214.33392214188854
 20
171.35838956524225
 11
220.3153048595274
 21
177.33977228288111
  0
LINE
  8
_1-7_
  6
CONTINUOUS
 62
    4
 10
209.19132752807775
 20
169.0442220761781
 11
215.17270901938622
 21
175.0256035674866
  0
LINE
  8
_1-7_
  6
CONTINUOUS
 62
    4
 10
204.04873291426992
 20
166.73005458711515
 11
210.03011317924748
 21
172.71143485209271
  0
LINE
  8
_1-7_
  6
CONTINUOUS
 62
    4
 10
198.90613830045845
 20
164.41588709805035
 11
204.88751733910644
 21
170.39726613669833
  0
LINE
  8
_1-7_
  6
CONTINUOUS
 62
    4
 10
193.76354368664812
 20
162.10171960898668
 11
199.74492149896432
 21
168.08309742130288
  0
LINE
  8
_1-7_
  6
CONTINUOUS
 62
    4
 10
188.62094907283603
 20
159.78755211992126
 11
194.60232565882194
 21
165.76892870590717
  0
LINE
  8
_1-7_
  6
CONTINUOUS
 62
    4
 10
183.47835445902837
 20
157.47338463085845
 11
189.45972981868425
 21
163.45475999051433
  0
LINE
  8
_1-7_
  6
CONTINUOUS
 62
    4
 10
178.33575984521804
 20
155.15921714179478
 11
184.31713397854321
 21
161.14059127511996
  0
LINE
  8
_1-7_
  6
CONTINUOUS
 62
    4
 10
173.19316523140773
 20
152.84504965273112
 11
179.17453813840126
 21
158.82642255972468
  0
LINE
  8
_1-7_
  6
CONTINUOUS
 62
    4
 10
168.05057061759913
 20
150.5308821636674
 11
174.03194229826207
 21
156.5122538443303
  0
LINE
  8
_1-7_
  6
CONTINUOUS
 62
    4
 10
162.90797600378798
 20
148.21671467460291
 11
168.88934645812103
 21
154.19808512893596
  0
LINE
  8
_1-7_
  6
CONTINUOUS
 62
    4
 10
157.76538138997765
 20
145.90254718553925
 11
163.74675061797919
 21
151.88391641354079
  0
LINE
  8
_1-7_
  6
CONTINUOUS
 62
    4
 10
152.62278677616666
 20
143.58837969647493
 11
158.60415477783818
 21
149.56974769814647
  0
LINE
  8
_1-7_
  6
CONTINUOUS
 62
    4
 10
147.48019216235858
 20
141.27421220741169
 11
153.46155893769884
 21
147.25557898275196
  0
LINE
  8
_1-7_
  6
CONTINUOUS
 62
    4
 10
142.33759754854756
 20
138.96004471834735
 11
148.3189630975578
 21
144.94141026735758
  0
LINE
  8
_1-7_
  6
CONTINUOUS
 62
    4
 10
137.19500293473723
 20
136.64587722928368
 11
143.17636725741613
 21
142.62724155196258
  0
LINE
  8
_1-7_
  6
CONTINUOUS
 62
    4
 10
132.05240832092608
 20
134.3317097402192
 11
138.03377141727515
 21
140.31307283656827
  0
LINE
  8
_1-7_
  6
CONTINUOUS
 62
    4
 10
126.90981370711799
 20
132.01754225115599
 11
132.89117557713561
 21
137.99890412117358
  0
LINE
  8
_1-7_
  6
CONTINUOUS
 62
    4
 10
121.76721909330715
 20
129.70337476209181
 11
127.7485797369946
 21
135.68473540577924
  0
LINE
  8
_1-7_
  6
CONTINUOUS
 62
    4
 10
116.62462447949684
 20
127.38920727302813
 11
122.60598389685305
 21
133.37056669038438
  0
LINE
  8
_1-7_
  6
CONTINUOUS
 62
    4
 10
111.48202986568452
 20
125.0750397839625
 11
117.46338805671112
 21
131.05639797498912
  0
LINE
  8
_1-7_
  6
CONTINUOUS
 62
    4
 10
106.3394352518774
 20
122.76087229490028
 11
112.32079221657239
 21
128.74222925959521
  0
LINE
  8
_1-7_
  6
CONTINUOUS
 62
    4
 10
101.19684063806676
 20
120.44670480583628
 11
107.17819637643137
 21
126.42806054420086
  0
LINE
  8
_1-7_
  6
CONTINUOUS
 62
    4
 10
96.0542460242564
 20
118.13253731677261
 11
102.03560053629002
 21
124.11389182880616
  0
LINE
  8
_1-7_
  6
CONTINUOUS
 62
    4
 10
90.911651410443795
 20
115.81836982770662
 11
96.893004696147898
 21
121.79972311341075
  0
LINE
  8
_1-7_
  6
CONTINUOUS
 62
    4
 10
85.769056796636676
 20
113.50420233864438
 11
91.750408856009159
 21
119.48555439801683
  0
LINE
  8
_1-7_
  6
CONTINUOUS
 62
    4
 10
80.626462182826344
 20
111.19003484958071
 11
86.607813015868146
 21
117.17138568262249
  0
LINE
  8
_1-7_
  6
CONTINUOUS
 62
    4
 10
75.483867569015985
 20
108.87586736051705
 11
81.465217175726934
 21
114.85721696722797
  0
LINE
  8
_1-7_
  6
CONTINUOUS
 62
    4
 10
74.724437424785663
 20
111.82386530944589
 11
76.993224693345581
 21
109.555078040886
  0
LINE
  8
_1-7_
  6
CONTINUOUS
 62
    4
 10
76.675076667519761
 20
112.70165319145667
 11
78.943864112519378
 21
110.432865746457
  0
LINE
  8
_1-7_
  6
CONTINUOUS
 62
    4
 10
78.625715910254797
 20
113.5794410734683
 11
80.894503531694397
 21
111.31065345202873
  0
LINE
  8
_1-7_
  6
CONTINUOUS
 62
    4
 10
80.576355152989834
 20
114.45722895547991
 11
82.845142950869331
 21
112.18844115760044
  0
LINE
  8
_1-7_
  6
CONTINUOUS
 62
    4
 10
82.526994395724842
 20
115.33501683749157
 11
84.795782370044435
 21
113.06622886317197
  0
LINE
  8
_1-7_
  6
CONTINUOUS
 62
    4
 10
84.477633638458911
 20
116.21280471950232
 11
86.746421789218289
 21
113.944016568743
  0
LINE
  8
_1-7_
  6
CONTINUOUS
 62
    4
 10
86.428272881194005
 20
117.09059260151398
 11
88.697061208393279
 21
114.82180427431467
  0
LINE
  8
_1-7_
  6
CONTINUOUS
 62
    4
 10
88.378912123929041
 20
117.96838048352558
 11
90.647700627568184
 21
115.69959197988641
  0
LINE
  8
_1-7_
  6
CONTINUOUS
 62
    4
 10
90.329551366664077
 20
118.84616836553721
 11
92.598340046743289
 21
116.57737968545794
  0
LINE
  8
_1-7_
  6
CONTINUOUS
 62
    4
 10
92.280190609398176
 20
119.72395624754799
 11
94.548979465917199
 21
117.45516739102894
  0
LINE
  8
_1-7_
  6
CONTINUOUS
 62
    4
 10
94.230829852133184
 20
120.60174412955962
 11
96.499618885092133
 21
118.33295509660064
  0
LINE
  8
_1-7_
  6
CONTINUOUS
 62
    4
 10
96.181469094868248
 20
121.47953201157122
 11
98.450258304267237
 21
119.21074280217221
  0
LINE
  8
_1-7_
  6
CONTINUOUS
 62
    4
 10
98.132108337602176
 20
122.35731989358214
 11
100.40089772344095
 21
120.08853050774337
  0
LINE
  8
_1-7_
  6
CONTINUOUS
 62
    4
 10
100.08274758033735
 20
123.23510777559363
 11
102.35153714261608
 21
120.96631821331491
  0
LINE
  8
_1-7_
  6
CONTINUOUS
 62
    4
 10
102.03338682307242
 20
124.11289565760522
 11
104.30217656179104
 21
121.84410591888661
  0
LINE
  8
_1-7_
  6
CONTINUOUS
 62
    4
 10
103.98402606580746
 20
124.99068353961687
 11
106.25281598096615
 21
122.7218936244582
  0
LINE
  8
_1-7_
  6
CONTINUOUS
 62
    4
 10
105.93466530854138
 20
125.86847142162779
 11
108.2034554001398
 21
123.59968133002934
  0
LINE
  8
_1-7_
  6
CONTINUOUS
 62
    4
 10
107.88530455127656
 20
126.74625930363928
 11
110.15409481931499
 21
124.47746903560088
  0
LINE
  8
_1-7_
  6
CONTINUOUS
 62
    4
 10
109.83594379401165
 20
127.62404718565088
 11
112.10473423848993
 21
125.35525674117258
  0
LINE
  8
_1-7_
  6
CONTINUOUS
 62
    4
 10
111.78658303674666
 20
128.50183506766251
 11
114.055373657665
 21
126.23304444674417
  0
LINE
  8
_1-7_
  6
CONTINUOUS
 62
    4
 10
113.73722227948073
 20
129.37962294967329
 11
116.00601307683885
 21
127.11083215231517
  0
LINE
  8
_1-7_
  6
CONTINUOUS
 62
    4
 10
115.68786152221577
 20
130.25741083168492
 11
117.95665249601387
 21
127.98861985788685
  0
LINE
  8
_1-7_
  6
CONTINUOUS
 62
    4
 10
117.63850076495083
 20
131.13519871369652
 11
119.90729191518881
 21
128.86640756345855
  0
LINE
  8
_1-7_
  6
CONTINUOUS
 62
    4
 10
119.58914000768587
 20
132.01298659570816
 11
121.85793133436388
 21
129.74419526903014
  0
LINE
  8
_1-7_
  6
CONTINUOUS
 62
    4
 10
121.53977925041994
 20
132.89077447771896
 11
123.80857075353771
 21
130.62198297460117
  0
LINE
  8
_1-7_
  6
CONTINUOUS
 62
    4
 10
123.49041849315495
 20
133.76856235973059
 11
125.75921017271273
 21
131.49977068017282
  0
LINE
  8
_1-7_
  6
CONTINUOUS
 62
    4
 10
125.44105773589004
 20
134.64635024174217
 11
127.70984959188769
 21
132.37755838574452
  0
LINE
  8
_1-7_
  6
CONTINUOUS
 62
    4
 10
127.39169697862508
 20
135.5241381237538
 11
129.66048901106277
 21
133.25534609131611
  0
LINE
  8
_1-7_
  6
CONTINUOUS
 62
    4
 10
129.34233622135912
 20
136.40192600576461
 11
131.61112843023668
 21
134.13313379688705
  0
LINE
  8
_1-7_
  6
CONTINUOUS
 62
    4
 10
131.29297546409416
 20
137.27971388777624
 11
133.56176784941164
 21
135.01092150245876
  0
LINE
  8
_1-7_
  6
CONTINUOUS
 62
    4
 10
133.24361470682925
 20
138.15750176978781
 11
135.51240726858657
 21
135.88870920803049
  0
LINE
  8
_1-7_
  6
CONTINUOUS
 62
    4
 10
135.19425394956318
 20
139.03528965179873
 11
137.46304668776042
 21
136.76649691360149
  0
LINE
  8
_1-7_
  6
CONTINUOUS
 62
    4
 10
137.1448931922983
 20
139.91307753381025
 11
139.41368610693556
 21
137.64428461917302
  0
LINE
  8
_1-7_
  6
CONTINUOUS
 62
    4
 10
139.09553243503342
 20
140.79086541582183
 11
141.36432552611052
 21
138.52207232474473
  0
LINE
  8
_1-7_
  6
CONTINUOUS
 62
    4
 10
141.04617167776846
 20
141.66865329783346
 11
143.31496494528557
 21
139.39986003031635
  0
LINE
  8
_1-7_
  6
CONTINUOUS
 62
    4
 10
142.99681092050238
 20
142.54644117984438
 11
145.26560436445931
 21
140.27764773588746
  0
LINE
  8
_1-7_
  6
CONTINUOUS
 62
    4
 10
144.94745016323753
 20
143.4242290618559
 11
147.21624378363444
 21
141.15543544145899
  0
LINE
  8
_1-7_
  6
CONTINUOUS
 62
    4
 10
146.89808940597266
 20
144.30201694386747
 11
149.1668832028094
 21
142.0332231470307
  0
LINE
  8
_1-7_
  6
CONTINUOUS
 62
    4
 10
148.84872864870766
 20
145.1798048258791
 11
151.11752262198445
 21
142.91101085260232
  0
LINE
  8
_1-7_
  6
CONTINUOUS
 62
    4
 10
150.7993678914417
 20
146.05759270788994
 11
153.0681620411583
 21
143.78879855817334
  0
LINE
  8
_1-7_
  6
CONTINUOUS
 62
    4
 10
152.75000713417671
 20
146.93538058990157
 11
155.01880146033335
 21
144.66658626374496
  0
LINE
  8
_1-7_
  6
CONTINUOUS
 62
    4
 10
154.70064637691183
 20
147.81316847191312
 11
156.96944087950828
 21
145.54437396931667
  0
LINE
  8
_1-7_
  6
CONTINUOUS
 62
    4
 10
156.65128561964687
 20
148.69095635392475
 11
158.92008029868333
 21
146.42216167488829
  0
LINE
  8
_1-7_
  6
CONTINUOUS
 62
    4
 10
158.60192486238088
 20
149.56874423593558
 11
160.87071971785716
 21
147.29994938045931
  0
LINE
  8
_1-7_
  6
CONTINUOUS
 62
    4
 10
160.55256410511592
 20
150.44653211794721
 11
162.82135913703223
 21
148.1777370860309
  0
LINE
  8
_1-7_
  6
CONTINUOUS
 62
    4
 10
162.50320334785104
 20
151.32431999995876
 11
164.77199855620717
 21
149.05552479160264
  0
LINE
  8
_1-7_
  6
CONTINUOUS
 62
    4
 10
164.45384259058608
 20
152.20210788197039
 11
166.72263797538221
 21
149.93331249717428
  0
LINE
  8
_1-7_
  6
CONTINUOUS
 62
    4
 10
166.40448183332009
 20
153.07989576398123
 11
168.67327739455615
 21
150.81110020274517
  0
LINE
  8
_1-7_
  6
CONTINUOUS
 62
    4
 10
168.35512107605513
 20
153.95768364599289
 11
170.62391681373111
 21
151.6888879083169
  0
LINE
  8
_1-7_
  6
CONTINUOUS
 62
    4
 10
170.30576031879028
 20
154.8354715280044
 11
172.57455623290605
 21
152.56667561388861
  0
LINE
  8
_1-7_
  6
CONTINUOUS
 62
    4
 10
172.25639956152406
 20
155.71325941001544
 11
174.52519565207976
 21
153.44446331945974
  0
LINE
  8
_1-7_
  6
CONTINUOUS
 62
    4
 10
174.20703880425927
 20
156.5910472920269
 11
176.47583507125503
 21
154.32225102503114
  0
LINE
  8
_1-7_
  6
CONTINUOUS
 62
    4
 10
176.15767804699442
 20
157.46883517403842
 11
178.42647449043
 21
155.20003873060284
  0
LINE
  8
_1-7_
  6
CONTINUOUS
 62
    4
 10
178.10831728972948
 20
158.34662305605005
 11
180.37711390960499
 21
156.07782643617452
  0
LINE
  8
_1-7_
  6
CONTINUOUS
 62
    4
 10
180.05895653246338
 20
159.22441093806097
 11
182.32775332877878
 21
156.95561414174557
  0
LINE
  8
_1-7_
  6
CONTINUOUS
 62
    4
 10
182.00959577519848
 20
160.10219882007254
 11
184.27839274795392
 21
157.83340184731711
  0
LINE
  8
_1-7_
  6
CONTINUOUS
 62
    4
 10
183.96023501793366
 20
160.97998670208406
 11
186.22903216712888
 21
158.71118955288881
  0
LINE
  8
_1-7_
  6
CONTINUOUS
 62
    4
 10
185.91087426066866
 20
161.85777458409569
 11
188.17967158630387
 21
159.58897725846049
  0
LINE
  8
_1-7_
  6
CONTINUOUS
 62
    4
 10
187.86151350340259
 20
162.73556246610661
 11
190.13031100547767
 21
160.46676496403154
  0
LINE
  8
_1-7_
  6
CONTINUOUS
 62
    4
 10
189.81215274613766
 20
163.61335034811822
 11
192.08095042465283
 21
161.34455266960305
  0
LINE
  8
_1-7_
  6
CONTINUOUS
 62
    4
 10
191.76279198887283
 20
164.49113823012971
 11
194.03158984382776
 21
162.22234037517478
  0
LINE
  8
_1-7_
  6
CONTINUOUS
 62
    4
 10
193.7134312316079
 20
165.36892611214134
 11
195.98222926300275
 21
163.10012808074646
  0
LINE
  8
_1-7_
  6
CONTINUOUS
 62
    4
 10
195.66407047434186
 20
166.2467139941522
 11
197.9328686821766
 21
163.97791578631745
  0
LINE
  8
_1-7_
  6
CONTINUOUS
 62
    4
 10
197.61470971707686
 20
167.12450187616386
 11
199.88350810135171
 21
164.85570349188902
  0
LINE
  8
_1-7_
  6
CONTINUOUS
 62
    4
 10
199.56534895981207
 20
168.00228975817535
 11
201.83414752052664
 21
165.73349119746075
  0
LINE
  8
_1-7_
  6
CONTINUOUS
 62
    4
 10
201.51598820254708
 20
168.88007764018698
 11
203.78478693970163
 21
166.61127890303243
  0
LINE
  8
_1-7_
  6
CONTINUOUS
 62
    4
 10
203.46662744528103
 20
169.75786552219787
 11
205.73542635887563
 21
167.48906660860328
  0
LINE
  8
_1-7_
  6
CONTINUOUS
 62
    4
 10
205.41726668801607
 20
170.63565340420951
 11
207.68606577805059
 21
168.36685431417501
  0
LINE
  8
_1-7_
  6
CONTINUOUS
 62
    4
 10
207.36790593075128
 20
171.51344128622097
 11
209.63670519722552
 21
169.24464201974672
  0
LINE
  8
_1-7_
  6
CONTINUOUS
 62
    4
 10
209.31854517348501
 20
172.39122916823209
 11
211.58734461639921
 21
170.12242972531791
  0
LINE
  8
_1-7_
  6
CONTINUOUS
 62
    4
 10
211.26918441622024
 20
173.26901705024352
 11
213.53798403557451
 21
171.00021743088925
  0
LINE
  8
_1-7_
  6
CONTINUOUS
 62
    4
 10
213.21982365895542
 20
174.14680493225501
 11
215.48862345474947
 21
171.87800513646098
  0
LINE
  8
_1-7_
  6
CONTINUOUS
 62
    4
 10
215.17046290169048
 20
175.02459281426664
 11
217.43926287392443
 21
172.75579284203266
  0
LINE
  8
_1-7_
  6
CONTINUOUS
 62
    4
 10
217.12110214442438
 20
175.90238069627756
 11
219.38990229309826
 21
173.63358054760371
  0
LINE
  8
ADD_LINE
  6
DOT
 62
    4
 10
238.22427021855927
 20
182.10904579487857
 11
250.07410845903138
 21
155.77607093487737
  0
LINE
  8
ADD_LINE
  6
DOT
 62
    4
 10
238.42427021855926
 20
160.2673337311154
 11
226.08637535882588
 21
187.68487889701069
  0
LINE
  8
ADD_LINE
  6
DOT
 62
    4
 10
230.35211241662907
 20
156.63486285704423
 11
248.56369505623618
 21
156.63486285704423
  0
LINE
  8
_1-7_
  6
CONTINUOUS
 62
    7
 10
237.68615271749013
 20
151.08676913223923
 11
237.68615271749013
 21
107.88677713223925
  0
LINE
  8
_1-7_
  6
CONTINUOUS
 62
    7
 10
238.88615271749012
 20
151.08676913223923
 11
238.88615271749012
 21
107.88677713223925
  0
LINE
  8
_1-7_
  6
CONTINUOUS
 62
    7
 10
225.78615271749013
 20
154.48676913223923
 11
250.78615271749013
 21
154.48676913223923
  0
LINE
  8
_1-7_
  6
CONTINUOUS
 62
    7
 10
225.78615271749013
 20
152.68676913223925
 11
236.08615271749011
 21
152.68676913223925
  0
LINE
  8
_1-7_
  6
CONTINUOUS
 62
    7
 10
240.48615271749011
 20
152.68676913223925
 11
250.78615271749013
 21
152.68676913223925
  0
LINE
  8
_1-7_
  6
CONTINUOUS
 62
    7
 10
225.78615271749013
 20
154.48676913223923
 11
225.78615271749013
 21
152.68676913223925
  0
LINE
  8
_1-7_
  6
CONTINUOUS
 62
    7
 10
225.78615271749013
 20
104.48677713223924
 11
250.78615271749013
 21
104.48677713223924
  0
LINE
  8
_1-7_
  6
CONTINUOUS
 62
    7
 10
225.78615271749013
 20
106.28677713223922
 11
236.08615271749011
 21
106.28677713223922
  0
LINE
  8
_1-7_
  6
CONTINUOUS
 62
    7
 10
240.48615271749011
 20
106.28677713223922
 11
250.78615271749013
 21
106.28677713223922
  0
LINE
  8
_1-7_
  6
CONTINUOUS
 62
    7
 10
225.78615271749013
 20
104.48677713223924
 11
225.78615271749013
 21
106.28677713223922
  0
LINE
  8
_1-7_
  6
CONTINUOUS
 62
    7
 10
250.78615271749013
 20
104.48677713223924
 11
250.78615271749013
 21
106.28677713223922
  0
ARC
  8
_1-7_
  6
CONTINUOUS
 62
    7
 10
236.08615271749011
 20
151.08676913223923
 40
1.6000000000000001
 50
0
 51
90
  0
ARC
  8
_1-7_
  6
CONTINUOUS
 62
    7
 10
240.48615271749011
 20
151.08676913223923
 40
1.6000000000000001
 50
90
 51
180
  0
ARC
  8
_1-7_
  6
CONTINUOUS
 62
    7
 10
236.08615271749011
 20
107.88677713223925
 40
1.6000000000000001
 50
270
 51
0
  0
ARC
  8
_1-7_
  6
CONTINUOUS
 62
    7
 10
240.48615271749011
 20
107.88677713223925
 40
1.6000000000000001
 50
180
 51
270
  0
LINE
  8
_1-7_
  6
CONTINUOUS
 62
    7
 10
253.98615271749011
 20
154.48676913223923
 11
253.98615271749011
 21
57.275839184671625
  0
LINE
  8
ADD_LINE
  6
DOT
 62
    4
 10
221.55962666617734
 20
180.63222864576719
 11
222.88356869566886
 21
177.03528544139934
  0
LINE
  8
ADD_LINE
  6
DOT
 62
    4
 10
218.74428068607475
 20
179.59597239738062
 11
220.06822271556626
 21
175.99902919301277
  0
LINE
  8
ADD_LINE
  6
DOT
 62
    4
 10
215.85561913080997
 20
177.08744286266963
 11
216.92385079406424
 21
174.71362573522342
  0
LINE
  8
ADD_LINE
  6
DOT
 62
    4
 10
248.97122275149124
 20
164.07936269682872
 11
239.38901668212961
 21
185.37315476447446
  0
LINE
  8
ADD_LINE
  6
DOT
 62
    4
 10
248.14974405151159
 20
165.90487046836157
 11
248.83753951770046
 21
164.37643679850208
  0
LINE
  8
ADD_LINE
  6
DOT
 62
    4
 10
247.57295395992043
 20
164.38424125969749
 11
249.40843756292421
 21
165.2102088499249
  0
LINE
  8
_1-7_
  6
CONTINUOUS
 62
    4
 10
221.34993165852168
 20
177.75646086583583
 11
223.61873145431571
 21
175.48766107004181
  0
LINE
  8
_1-7_
  6
CONTINUOUS
 62
    4
 10
219.39929241578648
 20
176.87867298382434
 11
221.63437304961235
 21
174.64359234999847
  0
LINE
  8
_1-7_
  6
CONTINUOUS
 62
    4
 10
240.65834422784619
 20
186.45089225670125
 11
242.89731887394058
 21
184.21191761060683
  0
LINE
  8
_1-7_
  6
CONTINUOUS
 62
    4
 10
223.26685118339111
 20
178.66796846571305
 11
225.53565188796244
 21
176.39916776114171
  0
LINE
  8
_1-7_
  6
CONTINUOUS
 62
    4
 10
225.21749042612495
 20
179.54575634772405
 11
227.48629130713621
 21
177.27695546671279
  0
LINE
  8
_1-7_
  6
CONTINUOUS
 62
    4
 10
226.87429835809871
 20
180.29132010633475
 11
229.14309938897227
 21
178.02251907546119
  0
LINE
  8
_1-7_
  6
CONTINUOUS
 62
    4
 10
238.67787735623057
 20
185.60293200357017
 11
240.94667945476556
 21
183.33412990503521
  0
LINE
  8
_1-7_
  6
CONTINUOUS
 62
    4
 10
242.57915584170081
 20
187.35850776759327
 11
244.84795829311562
 21
185.08970531617848
  0
LINE
  8
_1-7_
  6
CONTINUOUS
 62
    4
 10
244.52979508443468
 20
188.23629564960427
 11
246.79859771228942
 21
185.96749302174953
  0
LINE
  8
_1-7_
  6
CONTINUOUS
 62
    4
 10
246.56892657145389
 20
189.15390505165027
 11
248.91817137274492
 21
186.80466025035923
  0
LINE
  8
_1-7_
  6
CONTINUOUS
 62
    4
 10
248.51956581418901
 20
190.03169293366182
 11
250.78836880292792
 21
187.76288994492293
  0
LINE
  8
_1-7_
  6
CONTINUOUS
 62
    4
 10
228.82493760083383
 20
181.1691079883463
 11
231.09373880814718
 21
178.90030678103295
  0
LINE
  8
_1-7_
  6
CONTINUOUS
 62
    4
 10
230.804791797181
 20
182.06004260281989
 11
233.07359318357683
 21
179.79124121642405
  0
LINE
  8
_1-7_
  6
CONTINUOUS
 62
    4
 10
232.72621608630283
 20
182.92468375236882
 11
234.995017646496
 21
180.65588219217565
  0
LINE
  8
_1-7_
  6
CONTINUOUS
 62
    4
 10
234.67685532903783
 20
183.80247163438048
 11
236.94565706567101
 21
181.5336698977473
  0
LINE
  8
_1-7_
  6
CONTINUOUS
 62
    4
 10
236.62749457177307
 20
184.68025951639191
 11
238.89629648484606
 21
182.41145760331892
  0
LINE
  8
_1-7_
  6
CONTINUOUS
 62
    4
 10
234.90430059712892
 20
180.61505952149776
 11
240.88568822009037
 21
186.5964471444592
  0
LINE
  8
_1-7_
  6
CONTINUOUS
 62
    4
 10
229.76170598331848
 20
178.30089203243401
 11
235.74309237994868
 21
184.28227842906421
  0
LINE
  8
_1-7_
  6
CONTINUOUS
 62
    4
 10
240.50130178561912
 20
183.13370996146705
 11
246.48268327692759
 21
189.11509145277552
  0
LINE
  8
_1-7_
  6
CONTINUOUS
 62
    4
 10
240.6285194310264
 20
186.480717053521
 11
242.89731887394058
 21
184.21191761060683
  0
LINE
  8
_1-7_
  6
CONTINUOUS
 62
    4
 10
242.57915867376164
 20
187.35850493553247
 11
244.84795829311591
 21
185.0897053161782
  0
LINE
  8
_1-7_
  6
CONTINUOUS
 62
    4
 10
244.52979791649682
 20
188.23629281754393
 11
246.79859771229084
 21
185.9674930217499
  0
LINE
  8
_1-7_
  6
CONTINUOUS
 62
    4
 10
246.5689299408387
 20
189.15390168226548
 11
248.83772938375287
 21
186.88510223935128
  0
LINE
  8
_1-7_
  6
CONTINUOUS
 62
    4
 10
248.51956918357391
 20
190.03168956427692
 11
250.7883688029282
 21
187.76288994492265
  0
LINE
  8
_1-7_
  6
CONTINUOUS
 62
    4
 10
246.44171229543142
 20
185.8068945902115
 11
250.78615271749013
 21
190.15133501227021
  0
LINE
  8
_1-7_
  6
CONTINUOUS
 62
    4
 10
250.47020505692413
 20
190.90948081567336
 11
250.78615271749013
 21
190.59353315510739
  0
LINE
  8
_1-7_
  6
CONTINUOUS
 62
    4
 10
250.47020842630911
 20
190.90947744628841
 11
250.78615271749013
 21
190.59353315510739
  0
LINE
  8
_1-7_
  6
CONTINUOUS
 62
    7
 10
257.29794877147953
 20
158.5879211469281
 11
256.30182365782804
 21
158.5879211469281
  0
LINE
  8
_1-7_
  6
CONTINUOUS
 62
    7
 10
256.30182365782804
 20
158.5879211469281
 11
256.30182365782804
 21
155.61749388926177
  0
LINE
  8
_1-7_
  6
CONTINUOUS
 62
    7
 10
256.30182365782804
 20
155.61749388926177
 11
253.98615271749011
 21
155.61749388926177
  0
LINE
  8
_1-7_
  6
CONTINUOUS
 62
    7
 10
250.78615271749013
 20
154.48676913223923
 11
250.78615271749013
 21
145.31005093062194
  0
LINE
  8
_1-7_
  6
CONTINUOUS
 62
    7
 10
250.78615271749013
 20
145.31005093062194
 11
250.78615271749013
 21
57.275839184671625
  0
LINE
  8
_1-7_
  6
CONTINUOUS
 62
    7
 10
229.47754180597076
 20
154.48676913223926
 11
250.78615271749013
 21
164.07564368130974
  0
ARC
  8
_1-7_
  6
CONTINUOUS
 62
    7
 10
237.79249974483926
 20
152.98893745164702
 40
4.4698967635701878
 50
183.87619307982021
 51
268.63669987319122
  0
ARC
  8
_1-7_
  6
CONTINUOUS
 62
    7
 10
237.65288362627516
 20
106.91561832549658
 40
4.10860609543841
 50
89.536047189252997
 51
188.80398866855873
  0
LINE
  8
ADD_LINE
  6
DOT
 62
    4
 10
238.28615271749013
 20
156.33972429718523
 11
238.28615271749013
 21
101.19135746436879
  0
LINE
  8
_1-7_
  6
CONTINUOUS
 62
    7
 10
238.88615271749012
 20
151.08676913223925
 11
238.88615271749012
 21
107.88677713223925
  0
ARC
  8
_1-7_
  6
CONTINUOUS
 62
    7
 10
240.48615271749011
 20
151.08676913223925
 40
1.6000000000000001
 50
90
 51
180
  0
ARC
  8
_1-7_
  6
CONTINUOUS
 62
    7
 10
240.48615271749011
 20
107.88677713223925
 40
1.6000000000000001
 50
180
 51
270
  0
ARC
  8
_1-7_
  6
CONTINUOUS
 62
    7
 10
238.77980569014099
 20
152.98893745164702
 40
4.4698967635701878
 50
271.36330012680878
 51
356.12380692017979
  0
ARC
  8
_1-7_
  6
CONTINUOUS
 62
    7
 10
238.91942180870507
 20
106.91561832549658
 40
4.10860609543841
 50
351.19601133144124
 51
90.463952810746974
  0
LINE
  8
ADD_LINE
  6
DOT
 62
    4
 10
73.055290701595993
 20
130.47796625917479
 11
73.055290701595993
 21
36.029873544480054
  0
LINE
  8
ADD_LINE
  6
DOT
 62
    4
 10
139.54064143606951
 20
114.83560296050399
 11
129.9584353667079
 21
136.12939502814973
  0
LINE
  8
_1-7_
  6
CONTINUOUS
 62
    3
 10
131.45571571415823
 20
132.80210762081941
 11
138.71918397778774
 21
116.66110304293619
  0
LINE
  8
_1-7_
  6
CONTINUOUS
 62
    3
 10
131.87521768737392
 20
132.99088392989484
 11
139.13868595100342
 21
116.84987935201161
  0
LINE
  8
_1-7_
  6
CONTINUOUS
 62
    3
 10
132.03250807964625
 20
134.32272991684783
 11
139.05430103160674
 21
137.48254379424597
  0
LINE
  8
_1-7_
  6
CONTINUOUS
 62
    3
 10
132.22127289848939
 20
133.9032534774247
 11
139.24306585044988
 21
137.06306735482283
  0
LINE
  8
_1-7_
  6
CONTINUOUS
 62
    3
 10
140.23981356918546
 20
116.08431396037167
 11
147.26160652114595
 21
119.24412783776984
  0
LINE
  8
_1-7_
  6
CONTINUOUS
 62
    3
 10
140.05104546741879
 20
116.50379769516414
 11
147.07283841937931
 21
119.66361157256227
  0
LINE
  8
_1-7_
  6
CONTINUOUS
 62
    3
 10
140.57492734008093
 20
136.90576200705078
 11
141.74446884015688
 21
134.30678669366279
  0
LINE
  8
_1-7_
  6
CONTINUOUS
 62
    3
 10
140.1554436052885
 20
136.71699390528414
 11
141.32498510536445
 21
134.11801859189615
  0
LINE
  8
_1-7_
  6
CONTINUOUS
 62
    3
 10
141.32498510536445
 20
134.11801859189615
 11
141.74446884015688
 21
134.30678669366279
  0
LINE
  8
_1-7_
  6
CONTINUOUS
 62
    3
 10
147.83839560371044
 20
120.76475742916753
 11
146.66885410363452
 21
123.36373274255553
  0
LINE
  8
_1-7_
  6
CONTINUOUS
 62
    3
 10
147.418911868918
 20
120.57598932740089
 11
146.24937036884208
 21
123.17496464078889
  0
LINE
  8
_1-7_
  6
CONTINUOUS
 62
    3
 10
146.24937036884208
 20
123.17496464078889
 11
146.66885410363452
 21
123.36373274255553
  0
ARC
  8
_1-7_
  6
CONTINUOUS
 62
    3
 10
132.50442505113932
 20
133.27402787523602
 40
0.69
 50
114.22779314987881
 51
204.22779314987881
  0
ARC
  8
_1-7_
  6
CONTINUOUS
 62
    3
 10
132.50442505113932
 20
133.27402787523602
 40
1.1500000000000001
 50
114.22779314987881
 51
204.22779314987881
  0
ARC
  8
_1-7_
  6
CONTINUOUS
 62
    3
 10
139.52621800309984
 20
136.43384175263418
 40
0.69
 50
24.227793149878803
 51
114.22779314987881
  0
ARC
  8
_1-7_
  6
CONTINUOUS
 62
    3
 10
139.52621800309984
 20
136.43384175263418
 40
1.1500000000000001
 50
24.227793149878803
 51
114.22779314987881
  0
ARC
  8
_1-7_
  6
CONTINUOUS
 62
    3
 10
139.76789331476883
 20
117.13302329735279
 40
0.69
 50
204.22779314987881
 51
294.22779314987878
  0
ARC
  8
_1-7_
  6
CONTINUOUS
 62
    3
 10
139.76789331476883
 20
117.13302329735279
 40
1.1500000000000001
 50
204.22779314987881
 51
294.22779314987878
  0
ARC
  8
_1-7_
  6
CONTINUOUS
 62
    3
 10
146.78968626672935
 20
120.29283717475096
 40
0.69
 50
294.22779314987883
 51
24.227793149878799
  0
ARC
  8
_1-7_
  6
CONTINUOUS
 62
    3
 10
146.78968626672935
 20
120.29283717475096
 40
1.1500000000000001
 50
294.22779314987883
 51
24.227793149878799
  0
LINE
  8
ADD_LINE
  6
DOT
 62
    4
 10
132.03250479672275
 20
134.32273721221713
 11
129.60642851652386
 21
133.23100045064564
  0
LINE
  8
ADD_LINE
  6
DOT
 62
    4
 10
131.45571571415823
 20
132.80210762081941
 11
130.63903353606963
 21
134.61695285683572
  0
LINE
  8
ADD_LINE
  6
DOT
 62
    4
 10
138.71918397778774
 20
116.66110304293619
 11
139.48450225536766
 21
114.9603995534186
  0
LINE
  8
ADD_LINE
  6
DOT
 62
    4
 10
140.23981356918546
 20
116.08431396037167
 11
138.70306490358337
 21
115.39277551814422
  0
LINE
  8
_1-7_
  6
CONTINUOUS
 62
    7
 10
253.98615271749046
 20
157.12416552078361
 11
255.49282434901184
 21
155.61749388926225
  0
LINE
  8
_1-7_
  6
CONTINUOUS
 62
    7
 10
253.98615271748969
 20
159.95259264553107
 11
256.30182365782775
 21
157.636921705193
  0
LINE
  8
_1-7_
  6
CONTINUOUS
 62
    7
 10
253.98615271748994
 20
162.78101977027751
 11
257.29794877147953
 21
159.46922371628793
  0
LINE
  8
_1-7_
  6
CONTINUOUS
 62
    7
 10
253.98615271749017
 20
165.60944689502392
 11
257.29794877147975
 21
162.29765084103434
  0
LINE
  8
_1-7_
  6
CONTINUOUS
 62
    7
 10
253.9861527174904
 20
168.43787401976854
 11
257.29794877147953
 21
165.12607796577942
  0
LINE
  8
_1-7_
  6
CONTINUOUS
 62
    7
 10
253.98615271748977
 20
171.26630114451584
 11
257.29794877147935
 21
167.95450509052628
  0
LINE
  8
_1-7_
  6
CONTINUOUS
 62
    7
 10
253.98615271749
 20
174.09472826926228
 11
257.29794877147958
 21
170.78293221527269
  0
LINE
  8
_1-7_
  6
CONTINUOUS
 62
    7
 10
253.98615271749026
 20
176.92315539400869
 11
257.29794877147981
 21
173.61135934001911
  0
LINE
  8
_1-7_
  6
CONTINUOUS
 62
    7
 10
253.9861527174898
 20
179.75158251875399
 11
257.29794877147941
 21
176.43978646476438
  0
LINE
  8
_1-7_
  6
CONTINUOUS
 62
    7
 10
253.98615271748986
 20
182.5800096435006
 11
257.29794877147941
 21
179.26821358951105
  0
LINE
  8
_1-7_
  6
CONTINUOUS
 62
    7
 10
253.98615271749009
 20
185.40843676824704
 11
257.29794877147964
 21
182.09664071425746
  0
LINE
  8
_1-7_
  6
CONTINUOUS
 62
    7
 10
253.98615271749034
 20
188.23686389299345
 11
257.29794877147941
 21
184.92506783900441
  0
LINE
  8
_1-7_
  6
CONTINUOUS
 62
    3
 10
231.76707297017938
 20
177.94222970703538
 11
239.03052970257588
 21
161.80122213326203
  0
LINE
  8
_1-7_
  6
CONTINUOUS
 62
    3
 10
232.18655683023042
 20
178.13099753044995
 11
239.45001356262691
 21
161.9899899566766
  0
LINE
  8
_1-7_
  6
CONTINUOUS
 62
    3
 10
232.34386306177055
 20
179.46285891569943
 11
239.36565811045105
 21
182.62266813372605
  0
LINE
  8
_1-7_
  6
CONTINUOUS
 62
    3
 10
232.53263088518514
 20
179.04337505564837
 11
239.55442593386562
 21
182.20318427367499
  0
LINE
  8
_1-7_
  6
CONTINUOUS
 62
    3
 10
240.55115891123992
 20
161.22443204167087
 11
247.57295395992043
 21
164.38424125969749
  0
LINE
  8
_1-7_
  6
CONTINUOUS
 62
    3
 10
240.36239108782536
 20
161.64391590172193
 11
247.38418613650583
 21
164.80372511974855
  0
LINE
  8
_1-7_
  6
CONTINUOUS
 62
    3
 10
240.8862873191151
 20
182.04587804213489
 11
242.05582709461845
 21
179.44690195268822
  0
LINE
  8
_1-7_
  6
CONTINUOUS
 62
    3
 10
240.46680345906404
 20
181.85711021872032
 11
241.63634323456742
 21
179.25813412927363
  0
LINE
  8
_1-7_
  6
CONTINUOUS
 62
    3
 10
241.63634323456742
 20
179.25813412927363
 11
242.05582709461845
 21
179.44690195268822
  0
LINE
  8
_1-7_
  6
CONTINUOUS
 62
    3
 10
248.14974405151159
 20
165.90487046836157
 11
246.98020345527854
 21
168.5038483816511
  0
LINE
  8
_1-7_
  6
CONTINUOUS
 62
    3
 10
247.73026019146053
 20
165.71610264494697
 11
246.56071959522751
 21
168.31508055823653
  0
LINE
  8
_1-7_
  6
CONTINUOUS
 62
    3
 10
246.56071959522751
 20
168.31508055823653
 11
246.98020345527854
 21
168.5038483816511
  0
ARC
  8
_1-7_
  6
CONTINUOUS
 62
    3
 10
232.815782620307
 20
178.41414926557181
 40
0.69
 50
114.22775513077387
 51
204.22775513077386
  0
ARC
  8
_1-7_
  6
CONTINUOUS
 62
    3
 10
232.815782620307
 20
178.41414926557181
 40
1.1500000000000001
 50
114.22775513077387
 51
204.22775513077386
  0
ARC
  8
_1-7_
  6
CONTINUOUS
 62
    3
 10
239.83757766898748
 20
181.57395848359846
 40
0.69
 50
24.227755130773879
 51
114.22775513077387
  0
ARC
  8
_1-7_
  6
CONTINUOUS
 62
    3
 10
239.83757766898748
 20
181.57395848359846
 40
1.1500000000000001
 50
24.227755130773879
 51
114.22775513077387
  0
ARC
  8
_1-7_
  6
CONTINUOUS
 62
    3
 10
240.0792393527035
 20
162.27314169179849
 40
0.69
 50
204.22775513077386
 51
294.22775513077391
  0
ARC
  8
_1-7_
  6
CONTINUOUS
 62
    3
 10
240.0792393527035
 20
162.27314169179849
 40
1.1500000000000001
 50
204.22775513077386
 51
294.22775513077391
  0
ARC
  8
_1-7_
  6
CONTINUOUS
 62
    3
 10
247.10103440138397
 20
165.43295090982511
 40
0.69
 50
294.22775513077386
 51
24.227755130773872
  0
ARC
  8
_1-7_
  6
CONTINUOUS
 62
    3
 10
247.10103440138397
 20
165.43295090982511
 40
1.1500000000000001
 50
294.22775513077386
 51
24.227755130773872
  0
LINE
  8
_1-7_
  6
CONTINUOUS
 62
    7
 10
250.78615271749013
 20
154.48676913223923
 11
250.78615271749013
 21
191.3085659969166
  0
LINE
  8
_1-0_
  6
CONTINUOUS
 62
    7
 10
250.78615271749013
 20
191.3085659969166
 11
253.98615271749011
 21
191.3085659969166
  0
LINE
  8
_1-7_
  6
CONTINUOUS
 62
    7
 10
253.98615271749011
 20
154.48676913223923
 11
253.98615271749011
 21
191.3085659969166
  0
LINE
  8
_1-7_
  6
CONTINUOUS
 62
    7
 10
257.29794877147953
 20
189.94146005757145
 11
257.29794877147953
 21
158.5879211469281
  0
LINE
  8
_1-0_
  6
CONTINUOUS
 62
    7
 10
253.98615271749011
 20
189.94146005757145
 11
257.29794877147953
 21
189.94146005757145
  0
LINE
  8
_1-7_
  6
CONTINUOUS
 62
    7
 10
255.10998367765723
 20
189.94146005757145
 11
257.29794877147935
 21
187.75349496374932
  0
LINE
  8
_1-0_
  6
DASHED1
 62
    7
 10
250.78615271749013
 20
191.31449606403211
 11
199.66453496568363
 21
168.30976373893023
  0
LINE
  8
_1-5_
  6
CONTINUOUS
 62
    7
 10
241.81657944170158
 20
188.47565747689347
 11
250.13046778192029
 21
192.21690822698955
  0
LINE
  8
_1-7_
  6
CONTINUOUS
 62
    7
 10
250.13046778192029
 20
192.21690822698955
 11
250.25072096491175
 21
191.94967900264405
  0
LINE
  8
_1-3_
  6
CONTINUOUS
 62
    7
 10
231.38369673378691
 20
183.45950392653214
 11
250.25072096491175
 21
191.94967900264405
  0
LINE
  8
_1-0_
  6
DASHED1
 62
    7
 10
63.214586461405133
 20
107.12545686677709
 11
250.78615271749013
 21
191.53267314702236
  0
LINE
  8
_1-7_
  6
CONTINUOUS
 62
    7
 10
73.055290701595993
 20
112.82728909977902
 11
239.81657944170158
 21
187.86987950793619
  0
LINE
  8
_1-7_
  6
CONTINUOUS
 62
    7
 10
63.214586461405133
 20
103.35469107001691
 11
250.78615271749013
 21
187.76189270651346
  0
LINE
  8
_1-7_
  6
CONTINUOUS
 62
    7
 10
63.214586461405133
 20
81.422979009643157
 11
250.78615271749013
 21
165.83018064613967
  0
LINE
  8
_1-7_
  6
CONTINUOUS
 62
    7
 10
63.214586461405133
 20
79.668442044813233
 11
225.73418287451915
 21
152.80225767652405
  0
LINE
  8
_1-7_
  6
CONTINUOUS
 62
    7
 10
63.214586461405133
 20
28.348235823538587
 11
232.41135129706709
 21
104.48677713223924
  0
LINE
  8
_1-7_
  6
CONTINUOUS
 62
    7
 10
63.214586461405133
 20
26.593698858708649
 11
236.31032247685613
 21
104.48677713223924
  0
LINE
  8
_1-7_
  6
CONTINUOUS
 62
    7
 10
63.214586461405133
 20
106.64443106139485
 11
250.78615271749013
 21
191.05165729901216
  0
LINE
  8
_1-7_
  6
CONTINUOUS
 62
    4
 10
66.897360983244596
 20
108.15061354081726
 11
69.061963766049416
 21
105.98601075801238
  0
LINE
  8
_1-7_
  6
CONTINUOUS
 62
    4
 10
70.341272955207501
 20
106.5616998714533
 11
76.322621335586973
 21
112.54304825183286
  0
LINE
  8
_1-7_
  6
CONTINUOUS
 62
    4
 10
70.798639468714669
 20
109.9061893048405
 11
72.963242604399539
 21
107.74158616915565
  0
LINE
  8
_1-7_
  6
CONTINUOUS
 62
    4
 10
63.214586461405133
 20
104.66168941128672
 11
66.819572028369208
 21
108.26667497825082
  0
LINE
  8
_1-7_
  6
CONTINUOUS
 62
    4
 10
64.842537972156947
 20
107.37700942716003
 11
67.215509009070416
 21
105.00403839024658
  0
LINE
  8
_1-7_
  6
CONTINUOUS
 62
    4
 10
68.74381645762594
 20
109.13258519118259
 11
71.012603185224492
 21
106.86379846358403
  0
LINE
  8
_1-7_
  6
CONTINUOUS
 62
    4
 10
65.980820527943507
 20
104.5994963530803
 11
71.962167868507493
 21
110.58084369364428
  0
LINE
  8
_1-7_
  6
CONTINUOUS
 62
    4
 10
72.773798182050655
 20
110.94607742743426
 11
75.042585274170563
 21
108.67729033531438
  0
LINE
  8
_1-7_
  6
CONTINUOUS
 62
    4
 10
63.214586461405133
 20
106.17653381316519
 11
65.160684927700657
 21
104.23043534686971
  0
TEXT
  8
_1-4_
 62
    7
 10
186.06126160378358
 20
86.897507710621937
 40
2.5
 41
1
 50
0
  1
※　地域により瓦桟木の大きさは、異なります
  0
TEXT
  8
_0-1_
 62
    7
 10
172.9676333079012
 20
89.381630300792835
 40
2.5
 41
1
 50
0
  1
瓦桟
  0
TEXT
  8
_0-1_
 62
    7
 10
172.96763124590265
 20
67.973409030205843
 40
2.5
 41
1
 50
0
  1
野地板
  0
TEXT
  8
_0-1_
 62
    7
 10
172.96763124590265
 20
81.877720751595206
 40
2.5
 41
1
 50
0
  1
縦桟
  0
TEXT
  8
_0-1_
 62
    7
 10
172.96762918390414
 20
74.594502780205843
 40
2.5
 41
1
 50
0
  1
ルーフィング
  0
TEXT
  8
_0-1_
 62
    7
 10
187.34935542308278
 20
67.973409030205843
 40
2.5
 41
1
 50
0
  1
硬質木片セメント板　ｔ＝25
  0
TEXT
  8
_1-4_
 62
    7
 10
187.68468465947291
 20
60.64241346818919
 40
2.5
 41
1
 50
0
  1
Ｃ－100ｘ50ｘ20ｘ3.2
  0
TEXT
  8
_1-4_
 62
    7
 10
215.41188465947295
 20
60.64241346818919
 40
2.5
 41
1
 50
0
  1
＠606
  0
TEXT
  8
_1-4_
 62
    7
 10
173.52988465947288
 20
60.64241346818919
 40
2.5
 41
1
 50
0
  1
たるき
  0
LINE
  8
_1-4_
  6
CONTINUOUS
 62
    7
 10
97.072752803216702
 20
156.75190109054185
 11
95.067873616968924
 21
156.75190109054185
  0
LINE
  8
_0-1_
  6
CONTINUOUS
 62
    7
 10
104.80139828661879
 20
135.51759157297951
 11
97.072752803216702
 21
156.75190109054185
  0
TEXT
  8
_0-1_
 62
    7
 10
88.581731501297057
 20
155.29416723652483
 40
2.5
 41
1
 50
0
  1
桟瓦
  0
LINE
  8
_1-3_
  6
CONTINUOUS
 62
    7
 10
133.01596857777446
 20
141.53617068117742
 11
149.82195254248961
 21
95.362106607862273
  0
LINE
  8
_1-3_
  6
CONTINUOUS
 62
    7
 10
149.82195254248961
 20
95.362106607862273
 11
161.50251492566983
 21
63.270023393592666
  0
LINE
  8
_0-1_
  6
CONTINUOUS
 62
    7
 10
151.31135134577934
 20
91.270016795197392
 11
166.48114475941617
 21
91.270016795197392
  0
LINE
  8
_0-1_
  6
CONTINUOUS
 62
    7
 10
153.85914224075196
 20
84.270018444796222
 11
166.48114475941617
 21
84.270018444796222
  0
LINE
  8
_0-1_
  6
CONTINUOUS
 62
    7
 10
156.40693313572459
 20
77.270020094395036
 11
166.48114475941617
 21
77.270020094395036
  0
LINE
  8
_0-1_
  6
CONTINUOUS
 62
    7
 10
158.95472403069721
 20
70.270021743993865
 11
166.48114475941617
 21
70.270021743993865
  0
LINE
  8
_0-1_
  6
CONTINUOUS
 62
    7
 10
161.50251492566983
 20
63.270023393592666
 11
166.48114475941617
 21
63.270023393592666
  0
TEXT
  8
_1-4_
 62
    7
 10
185.97834252842074
 20
89.85892211550366
 40
2.5
 41
1
 50
0
  1
１５×２１　　　　（樹脂桟木）
  0
ENDSEC
  0
EOF
