  0
SECTION
  2
HEADER
  9
$ACADVER
  1
AC1009
  9
$INSBASE
 10
0
 20
0
 30
0
  9
$EXTMIN
 10
0
 20
0
  9
$EXTMAX
 10
420
 20
297
  9
$LIMMIN
 10
0
 20
0
  9
$LIMMAX
 10
420
 20
297
  9
$LTSCALE
 40
1
  0
ENDSEC
  0
SECTION
  2
TABLES
  0
TABLE
  2
LTYPE
 70
     9
  0
LTYPE
  2
CONTINUOUS
 70
    64
  3
実線
 72
    65
 73
     0
 40
0.0
  0
LTYPE
  2
DASHED1
 70
    64
  3
--  --  --  --  --  --  --  --  
 72
    65
 73
     2
 40
2.5
 49
1.25
 49
-1.25
  0
LTYPE
  2
DASHED2
 70
    64
  3
----    ----    ----    ----    
 72
    65
 73
     2
 40
5.0
 49
2.5
 49
-2.5
  0
LTYPE
  2
DASHED3
 70
    64
  3
------  ------  ------  ------  
 72
    65
 73
     2
 40
5.0
 49
3.75
 49
-1.25
  0
LTYPE
  2
CENTER1
 70
    64
  3
----- - ----- - ----- - ----- - 
 72
    65
 73
     4
 40
10.0
 49
6.25
 49
-1.25
 49
1.25
 49
-1.25
  0
LTYPE
  2
CENTER2
 70
    64
  3
----------  --  ----------  --  
 72
    65
 73
     4
 40
20.0
 49
12.5
 49
-2.5
 49
2.5
 49
-2.5
  0
LTYPE
  2
PHANTOM1
 70
    64
  3
--- - - --- - - --- - - --- - - 
 72
    65
 73
     6
 40
10.0
 49
3.25
 49
-1.25
 49
1.25
 49
-1.25
 49
1.25
 49
-1.25
  0
LTYPE
  2
PHANTOM2
 70
    64
  3
--------  -  -  --------  -  -  
 72
    65
 73
     6
 40
20.0
 49
10.0
 49
-2.5
 49
1.25
 49
-2.5
 49
1.25
 49
-2.5
  0
LTYPE
  2
DOT
 70
    64
  3
-   -   -   -   -   -   -   -   
 72
    65
 73
     2
 40
2.5
 49
0.625
 49
-1.875
  0
LTYPE
  2
DUMMY
 70
    64
  3
ダミー
 72
    65
 73
     0
 40
0.0
  0
LTYPE
  2
RAND1
 70
    64
  3
ランダム線1
 72
    65
 73
     4
 40
10.0
 49
1.0
 49
-2.0
 49
3.0
 49
-4.0
  0
LTYPE
  2
RAND2
 70
    64
  3
ランダム線2
 72
    65
 73
     4
 40
14.0
 49
2.0
 49
-3.0
 49
4.0
 49
-5.0
  0
LTYPE
  2
RAND3
 70
    64
  3
ランダム線3
 72
    65
 73
     4
 40
18.0
 49
3.0
 49
-4.0
 49
5.0
 49
-6.0
  0
LTYPE
  2
RAND4
 70
    64
  3
ランダム線4
 72
    65
 73
     4
 40
22.0
 49
4.0
 49
-5.0
 49
6.0
 49
-7.0
  0
LTYPE
  2
RAND5
 70
    64
  3
ランダム線5
 72
    65
 73
     4
 40
26.0
 49
5.0
 49
-6.0
 49
7.0
 49
-8.0
  0
LTYPE
  2
LONG1
 70
    64
  3
----------  --  ----------  --  
 72
    65
 73
     4
 40
40.0
 49
32.5
 49
-2.5
 49
2.5
 49
-2.5
  0
LTYPE
  2
LONG2
 70
    64
  3
--------  -  -  --------  -  -  
 72
    65
 73
     6
 40
40.0
 49
30.0
 49
-2.5
 49
1.25
 49
-2.5
 49
1.25
 49
-2.5
  0
LTYPE
  2
LONG3
 70
    64
  3
+++++++++++++++..+++++++++++++++
 72
    65
 73
     2
 40
40.0
 49
37.5
 49
-2.5
  0
LTYPE
  2
LONG4
 70
    64
  3
+++++++++++++++..+++++++++++++++
 72
    65
 73
     2
 40
80.0
 49
75.0
 49
-5.0
  0
LTYPE
  2
LONG5
 70
    64
  3
----------  --  ----------  --  
 72
    65
 73
     4
 40
60.0
 49
37.5
 49
-7.5
 49
7.5
 49
-7.5
  0
LTYPE
  2
dashed
 70
   64
  3
-------   -------------   ------
 72
   65
 73
    2
 40
7.5
 49
6
 49
-1.5
  0
LTYPE
  2
dashed_spaced
 70
   64
  3
----        --------        ----
 72
   65
 73
    2
 40
12
 49
6
 49
-6
  0
LTYPE
  2
long_dashed_dotted
 70
   64
  3
------------- --- --------------
 72
   65
 73
    4
 40
15.25
 49
12
 49
-1.5
 49
0.25
 49
-1.5
  0
LTYPE
  2
long_dashed_double-dotted
 70
   64
  3
----------- --- --- ------------
 72
   65
 73
    6
 40
17
 49
12
 49
-1.5
 49
0.25
 49
-1.5
 49
0.25
 49
-1.5
  0
LTYPE
  2
long_dashed_triplicate-dotted
 70
   64
  3
--------- --- --- --- ----------
 72
   65
 73
    8
 40
18.75
 49
12
 49
-1.5
 49
0.25
 49
-1.5
 49
0.25
 49
-1.5
 49
0.25
 49
-1.5
  0
LTYPE
  2
dotted
 70
   64
  3
   -       -       -       -    
 72
   65
 73
    2
 40
1.75
 49
0.25
 49
-1.5
  0
LTYPE
  2
chain
 70
   64
  3
-------------- -- --------------
 72
   65
 73
    4
 40
18.5
 49
12
 49
-1.5
 49
3.5
 49
-1.5
  0
LTYPE
  2
chain_double_dash
 70
   64
  3
------------ -- -- -------------
 72
   65
 73
    6
 40
23.5
 49
12
 49
-1.5
 49
3.5
 49
-1.5
 49
3.5
 49
-1.5
  0
LTYPE
  2
dashed_dotted
 70
   64
  3
-----------     -     ----------
 72
   65
 73
    4
 40
9.25
 49
6
 49
-1.5
 49
0.25
 49
-1.5
  0
LTYPE
  2
double-dashed_dotted
 70
   64
  3
------   -----------   -   -----
 72
   65
 73
    6
 40
16.75
 49
6
 49
-1.5
 49
6
 49
-1.5
 49
0.25
 49
-1.5
  0
LTYPE
  2
dashed_double-dotted
 70
   64
  3
---------    -    -    ---------
 72
   65
 73
    6
 40
11
 49
6
 49
-1.5
 49
0.25
 49
-1.5
 49
0.25
 49
-1.5
  0
LTYPE
  2
double-dashed_double-dotted
 70
   64
  3
-----   ---------   -   -   ----
 72
   65
 73
    8
 40
18.5
 49
6
 49
-1.5
 49
6
 49
-1.5
 49
0.25
 49
-1.5
 49
0.25
 49
-1.5
  0
LTYPE
  2
dashed_triplicate-dotted
 70
   64
  3
-------    -    -    -    ------
 72
   65
 73
    8
 40
12.75
 49
6
 49
-1.5
 49
0.25
 49
-1.5
 49
0.25
 49
-1.5
 49
0.25
 49
-1.5
  0
LTYPE
  2
double-dashed_triplicate-dotted
 70
   64
  3
-----  ---------  -  -  -  -----
 72
   65
 73
   10
 40
20.25
 49
6
 49
-1.5
 49
6
 49
-1.5
 49
0.25
 49
-1.5
 49
0.25
 49
-1.5
 49
0.25
 49
-1.5
  0
LTYPE
  2
undefined
 70
   64
  3
--------------------------------
 72
   65
 73
    0
 40
0
  0
LTYPE
  2
DOT_17
 70
   64
  3
--             ---             -
 72
   65
 73
    2
 40
5
 49
1
 49
-4
  0
LTYPE
  2
DASHED
 70
   64
  3
---          ------          ---
 72
   65
 73
    2
 40
5
 49
2
 49
-3
  0
LTYPE
  2
DASHED2_19
 70
   64
  3
---          ------          ---
 72
   65
 73
    2
 40
10
 49
4
 49
-6
  0
LTYPE
  2
CENTER
 70
   64
  3
----------    ----    ----------
 72
   65
 73
    4
 40
9
 49
6
 49
-1
 49
1
 49
-1
  0
LTYPE
  2
CENTER2_21
 70
   64
  3
----------    ----    ----------
 72
   65
 73
    4
 40
18
 49
12
 49
-2
 49
2
 49
-2
  0
LTYPE
  2
PHANTOM
 70
   64
  3
---------   ---   ---   --------
 72
   65
 73
    6
 40
10
 49
5
 49
-1
 49
1
 49
-1
 49
1
 49
-1
  0
LTYPE
  2
PHANTOM2_23
 70
   64
  3
------    ----    ----    ------
 72
   65
 73
    6
 40
16
 49
6
 49
-2
 49
2
 49
-2
 49
2
 49
-2
  0
LTYPE
  2
HIDDEN
 70
   64
  3
--             ---             -
 72
   65
 73
    2
 40
2.5
 49
0.5
 49
-2
  0
ENDTAB
  0
TABLE
  2
STYLE
  5
3
100
AcDbSymbolTable
 70
     1
  0
STYLE
  5
10
100
AcDbSymbolTableRecord
100
AcDbTextStyleTableRecord
  2
STANDARD
 70
     0
 40
0.0
 41
1.0
 50
0.0
 71
     0
 42
0.2
  3
txt
  4
bigfont.shx
  0
STYLE
  5
26
100
AcDbSymbolTableRecord
100
AcDbTextStyleTableRecord
  2
TATEGAKI
 70
    68
 40
0.0
 41
1.0
 50
0.0
 71
     0
 42
1.0
  3
txt
  4
bigfont.shx
  0
ENDTAB
  0
TABLE
  2
LAYER
 70
    6
  0
LAYER
  2
_0-0_
 70
   64
 62
    7
  6
CONTINUOUS
  0
LAYER
  2
_1-0_
 70
   64
 62
    7
  6
CONTINUOUS
  0
LAYER
  2
_1-1_
 70
   64
 62
    7
  6
CONTINUOUS
  0
LAYER
  2
_1-2_
 70
   64
 62
    7
  6
CONTINUOUS
  0
LAYER
  2
_1-3_
 70
   64
 62
    7
  6
CONTINUOUS
  0
LAYER
  2
ADD_LINE
 70
   64
 62
    7
  6
CONTINUOUS
  0
ENDTAB
  0
ENDSEC
  0
SECTION
  2
BLOCKS
  0
ENDSEC
  0
SECTION
  2
ENTITIES
  0
LINE
  8
_1-1_
  6
CONTINUOUS
 62
    7
 10
144.38931306952378
 20
154.86168443563702
 11
143.28214453940058
 21
154.86168443563702
  0
ARC
  8
_1-2_
  6
CONTINUOUS
 62
    3
 10
175.27479331866269
 20
152.87617270006766
 40
19.345762614884784
 50
178.45135118617307
 51
204.58419270033295
  0
LINE
  8
_0-0_
  6
CONTINUOUS
 62
    5
 10
6.7567526327597136
 20
280.13513513513516
 11
406.75677325274495
 21
280.13513513513516
  0
LINE
  8
_0-0_
  6
CONTINUOUS
 62
    5
 10
406.75677325274495
 20
10.13513513513513
 11
6.7567526327597136
 21
10.13513513513513
  0
LINE
  8
_0-0_
  6
CONTINUOUS
 62
    5
 10
406.75677325274495
 20
30.135133073136615
 11
6.7567402607685949
 21
30.135133073136615
  0
LINE
  8
_0-0_
  6
CONTINUOUS
 62
    5
 10
371.75678150073907
 20
10.13513513513513
 11
371.75678150073907
 21
30.135133073136615
  0
LINE
  8
_0-0_
  6
CONTINUOUS
 62
    5
 10
137.02703939901818
 20
30.135133073136615
 11
137.02703939901818
 21
10.13513513513513
  0
LINE
  8
_0-0_
  6
CONTINUOUS
 62
    5
 10
214.86486486486487
 20
30.135133073136615
 11
214.86486486486487
 21
10.13513513513513
  0
LINE
  8
_0-0_
  6
CONTINUOUS
 62
    5
 10
137.02703939901818
 20
20.135134104135886
 11
214.86486486486487
 21
20.135134104135886
  0
LINE
  8
_0-0_
  6
CONTINUOUS
 62
    5
 10
396.48648648648651
 20
25.945945945945951
 11
383.91891891891896
 21
13.378379924877265
  0
LINE
  8
_1-1_
  6
CONTINUOUS
 62
    7
 10
286.95888209987334
 20
132.72644867768159
 11
286.95888209987334
 21
133.32644075960727
  0
LINE
  8
_1-1_
  6
CONTINUOUS
 62
    7
 10
286.95888209987334
 20
133.32644075960727
 11
291.75886824324328
 21
133.32644075960727
  0
LINE
  8
_1-1_
  6
CONTINUOUS
 62
    7
 10
291.75886824324328
 20
133.32644075960727
 11
291.75886824324328
 21
132.72644867768159
  0
LINE
  8
_1-1_
  6
CONTINUOUS
 62
    7
 10
291.75886824324328
 20
132.72644867768159
 11
286.95888209987334
 21
132.72644867768159
  0
LINE
  8
_1-1_
  6
CONTINUOUS
 62
    7
 10
286.95888209987334
 20
132.72644867768159
 11
291.75886824324328
 21
133.32644075960727
  0
LINE
  8
_1-1_
  6
CONTINUOUS
 62
    7
 10
254.57779343063768
 20
132.72644867768159
 11
254.57779343063768
 21
133.32644075960727
  0
LINE
  8
_1-1_
  6
CONTINUOUS
 62
    7
 10
254.57779343063768
 20
133.32644075960727
 11
259.3777795740076
 21
133.32644075960727
  0
LINE
  8
_1-1_
  6
CONTINUOUS
 62
    7
 10
259.3777795740076
 20
133.32644075960727
 11
259.3777795740076
 21
132.72644867768159
  0
LINE
  8
_1-1_
  6
CONTINUOUS
 62
    7
 10
259.3777795740076
 20
132.72644867768159
 11
254.57779343063768
 21
132.72644867768159
  0
LINE
  8
_1-1_
  6
CONTINUOUS
 62
    7
 10
254.57779343063768
 20
132.72644867768159
 11
259.3777795740076
 21
133.32644075960727
  0
LINE
  8
_1-1_
  6
CONTINUOUS
 62
    7
 10
192.93776228621201
 20
132.72644867768159
 11
192.93776228621201
 21
133.32644075960727
  0
LINE
  8
_1-1_
  6
CONTINUOUS
 62
    7
 10
192.93776228621201
 20
133.32644075960727
 11
197.73774842958193
 21
133.32644075960727
  0
LINE
  8
_1-1_
  6
CONTINUOUS
 62
    7
 10
197.73774842958193
 20
133.32644075960727
 11
197.73774842958193
 21
132.72644867768159
  0
LINE
  8
_1-1_
  6
CONTINUOUS
 62
    7
 10
197.73774842958193
 20
132.72644867768159
 11
192.93776228621201
 21
132.72644867768159
  0
LINE
  8
_1-1_
  6
CONTINUOUS
 62
    7
 10
192.93776228621201
 20
132.72644867768159
 11
197.73774842958193
 21
133.32644075960727
  0
LINE
  8
_1-1_
  6
CONTINUOUS
 62
    7
 10
166.26226476720862
 20
136.32645065720018
 11
166.26226476720862
 21
133.32645313159841
  0
LINE
  8
_1-1_
  6
CONTINUOUS
 62
    7
 10
173.61919506176099
 20
132.72644867768159
 11
173.61919506176099
 21
133.32644075960727
  0
LINE
  8
_1-1_
  6
CONTINUOUS
 62
    7
 10
173.61919506176099
 20
133.32644075960727
 11
168.81925840635557
 21
133.32644075960727
  0
LINE
  8
_1-1_
  6
CONTINUOUS
 62
    7
 10
168.81925840635557
 20
133.32644075960727
 11
168.81925840635557
 21
132.72644867768159
  0
LINE
  8
_1-1_
  6
CONTINUOUS
 62
    7
 10
168.81925840635557
 20
132.72644867768159
 11
173.61919506176099
 21
132.72644867768159
  0
LINE
  8
_1-1_
  6
CONTINUOUS
 62
    7
 10
173.61919506176099
 20
132.72644867768159
 11
168.81925840635557
 21
133.32644075960727
  0
LINE
  8
_1-1_
  6
CONTINUOUS
 62
    3
 10
165.20723085145693
 20
132.47366415487755
 11
165.20723085145693
 21
136.32645065720018
  0
LINE
  8
_1-1_
  6
CONTINUOUS
 62
    3
 10
165.20723085145693
 20
136.32645065720018
 11
161.09844310863599
 21
136.32645065720018
  0
LINE
  8
_1-1_
  6
CONTINUOUS
 62
    3
 10
165.20723085145693
 20
132.47366415487755
 11
141.29234520164698
 21
132.47366415487755
  0
LINE
  8
_1-1_
  6
CONTINUOUS
 62
    7
 10
137.78614765888938
 20
132.3484348606419
 11
140.78615755648227
 21
132.3484348606419
  0
LINE
  8
_1-3_
  6
CONTINUOUS
 62
    7
 10
154.06254123997044
 20
133.70864868164062
 11
153.12120592271961
 21
132.41811391469597
  0
LINE
  8
_1-1_
  6
CONTINUOUS
 62
    7
 10
177.79611535974453
 20
136.32645065720018
 11
166.26226476720862
 21
136.32645065720018
  0
LINE
  8
_1-1_
  6
CONTINUOUS
 62
    7
 10
177.79611535974453
 20
136.32645065720018
 11
374.18540335990292
 21
136.32645065720018
  0
LINE
  8
_1-1_
  6
CONTINUOUS
 62
    7
 10
166.26226476720862
 20
133.32645313159841
 11
374.18540335990292
 21
133.32645313159841
  0
LINE
  8
_1-1_
  6
CONTINUOUS
 62
    7
 10
168.81925840635557
 20
132.72644867768159
 11
374.18540335990292
 21
132.72644867768159
  0
LINE
  8
_1-1_
  6
DASHED1
 62
    3
 10
374.18540335990292
 20
131.99859206740922
 11
136.82505427180109
 21
131.99859206740922
  0
LINE
  8
_1-1_
  6
CONTINUOUS
 62
    7
 10
374.18540335990292
 20
131.49927087732263
 11
136.82506664379224
 21
131.49927087732263
  0
LINE
  8
_1-3_
  6
CONTINUOUS
 62
    7
 10
288.27075855152026
 20
174.37440614442568
 11
273.87688714104729
 21
174.37440614442568
  0
LINE
  8
_1-3_
  6
CONTINUOUS
 62
    7
 10
288.50555419921875
 20
180.47896926467484
 11
276.09877302839953
 21
180.47896926467484
  0
LINE
  8
_1-3_
  6
CONTINUOUS
 62
    7
 10
288.27075855152026
 20
186.81832803262247
 11
278.4060998865076
 21
186.81832803262247
  0
LINE
  8
_1-3_
  6
CONTINUOUS
 62
    7
 10
287.80119200010557
 20
192.2185042097762
 11
280.37161337362755
 21
192.2185042097762
  0
LINE
  8
_1-1_
  6
CONTINUOUS
 62
    7
 10
136.82506664379224
 20
131.49927087732263
 11
134.42506120011615
 21
131.49927087732263
  0
LINE
  8
_1-1_
  6
CONTINUOUS
 62
    7
 10
134.42506120011615
 20
129.09926543364654
 11
374.18540335990292
 21
129.09926543364654
  0
LINE
  8
_1-1_
  6
CONTINUOUS
 62
    3
 10
144.02503348685602
 20
125.09926460884714
 11
144.42504470412797
 21
125.09926460884714
  0
LINE
  8
_1-1_
  6
CONTINUOUS
 62
    3
 10
144.42504470412797
 20
113.09927450644004
 11
144.02503348685602
 21
113.09927450644004
  0
LINE
  8
_1-1_
  6
CONTINUOUS
 62
    3
 10
143.02503018765836
 20
128.6992665883657
 11
135.82507571658573
 21
128.6992665883657
  0
LINE
  8
_1-1_
  6
CONTINUOUS
 62
    3
 10
144.02503348685602
 20
127.69926328916809
 11
144.02503348685602
 21
125.09926460884714
  0
LINE
  8
_1-1_
  6
CONTINUOUS
 62
    3
 10
144.42504470412797
 20
128.09926213444891
 11
144.42504470412797
 21
125.09926460884714
  0
LINE
  8
_1-1_
  6
CONTINUOUS
 62
    3
 10
143.42504140493034
 20
129.09926543364654
 11
135.42506449931378
 21
129.09926543364654
  0
LINE
  8
_1-1_
  6
CONTINUOUS
 62
    3
 10
144.02503348685602
 20
110.49926345412796
 11
144.02503348685602
 21
113.09927450644004
  0
LINE
  8
_1-1_
  6
CONTINUOUS
 62
    3
 10
144.42504470412797
 20
110.09926460884714
 11
144.42504470412797
 21
113.09927450644004
  0
LINE
  8
_1-1_
  6
CONTINUOUS
 62
    3
 10
135.82507571658573
 20
109.49927252692146
 11
143.02503018765836
 21
109.49927252692146
  0
LINE
  8
_1-1_
  6
CONTINUOUS
 62
    3
 10
134.8250724173881
 20
110.49926345412796
 11
134.8250724173881
 21
127.69926328916809
  0
LINE
  8
_1-1_
  6
CONTINUOUS
 62
    3
 10
134.42506120011615
 20
110.09926460884714
 11
134.42506120011615
 21
128.09926213444891
  0
LINE
  8
_1-1_
  6
CONTINUOUS
 62
    3
 10
135.42506449931378
 20
109.09926130964951
 11
143.42504140493034
 21
109.09926130964951
  0
LINE
  8
_1-1_
  6
CONTINUOUS
 62
    3
 10
229.02502936285896
 20
125.09926460884714
 11
229.42504058013091
 21
125.09926460884714
  0
LINE
  8
_1-1_
  6
CONTINUOUS
 62
    3
 10
229.42504058013091
 20
113.09927450644004
 11
229.02502936285896
 21
113.09927450644004
  0
LINE
  8
_1-1_
  6
CONTINUOUS
 62
    3
 10
228.02502606366133
 20
128.6992665883657
 11
220.8250715925887
 21
128.6992665883657
  0
LINE
  8
_1-1_
  6
CONTINUOUS
 62
    3
 10
229.02502936285896
 20
127.69926328916809
 11
229.02502936285896
 21
125.09926460884714
  0
LINE
  8
_1-1_
  6
CONTINUOUS
 62
    3
 10
229.42504058013091
 20
128.09926213444891
 11
229.42504058013091
 21
125.09926460884714
  0
LINE
  8
_1-1_
  6
CONTINUOUS
 62
    3
 10
228.42503728093328
 20
129.09926543364654
 11
220.42506037531675
 21
129.09926543364654
  0
LINE
  8
_1-1_
  6
CONTINUOUS
 62
    3
 10
229.02502936285896
 20
110.49926345412796
 11
229.02502936285896
 21
113.09927450644004
  0
LINE
  8
_1-1_
  6
CONTINUOUS
 62
    3
 10
229.42504058013091
 20
110.09926460884714
 11
229.42504058013091
 21
113.09927450644004
  0
LINE
  8
_1-1_
  6
CONTINUOUS
 62
    3
 10
220.8250715925887
 20
109.49927252692146
 11
228.02502606366133
 21
109.49927252692146
  0
LINE
  8
_1-1_
  6
CONTINUOUS
 62
    3
 10
219.82506829339107
 20
110.49926345412796
 11
219.82506829339107
 21
127.69926328916809
  0
LINE
  8
_1-1_
  6
CONTINUOUS
 62
    3
 10
219.42505707611909
 20
110.09926460884714
 11
219.42505707611909
 21
128.09926213444891
  0
LINE
  8
_1-1_
  6
CONTINUOUS
 62
    3
 10
220.42506037531675
 20
109.09926130964951
 11
228.42503728093328
 21
109.09926130964951
  0
LINE
  8
ADD_LINE
  6
DOT
 62
    3
 10
220.42506037531675
 20
129.09926543364654
 11
219.02680268158784
 21
129.09926543364654
  0
LINE
  8
_1-1_
  6
CONTINUOUS
 62
    3
 10
319.02502936285896
 20
125.09926460884714
 11
319.42504058013094
 21
125.09926460884714
  0
LINE
  8
_1-1_
  6
CONTINUOUS
 62
    3
 10
319.42504058013094
 20
113.09927450644004
 11
319.02502936285896
 21
113.09927450644004
  0
LINE
  8
_1-1_
  6
CONTINUOUS
 62
    3
 10
318.02502606366136
 20
128.6992665883657
 11
310.8250715925887
 21
128.6992665883657
  0
LINE
  8
_1-1_
  6
CONTINUOUS
 62
    3
 10
319.02502936285896
 20
127.69926328916809
 11
319.02502936285896
 21
125.09926460884714
  0
LINE
  8
_1-1_
  6
CONTINUOUS
 62
    3
 10
319.42504058013094
 20
128.09926213444891
 11
319.42504058013094
 21
125.09926460884714
  0
LINE
  8
_1-1_
  6
CONTINUOUS
 62
    3
 10
318.42503728093328
 20
129.09926543364654
 11
310.42506037531672
 21
129.09926543364654
  0
LINE
  8
_1-1_
  6
CONTINUOUS
 62
    3
 10
319.02502936285896
 20
110.49926345412796
 11
319.02502936285896
 21
113.09927450644004
  0
LINE
  8
_1-1_
  6
CONTINUOUS
 62
    3
 10
319.42504058013094
 20
110.09926460884714
 11
319.42504058013094
 21
113.09927450644004
  0
LINE
  8
_1-1_
  6
CONTINUOUS
 62
    3
 10
310.8250715925887
 20
109.49927252692146
 11
318.02502606366136
 21
109.49927252692146
  0
LINE
  8
_1-1_
  6
CONTINUOUS
 62
    3
 10
309.82506829339104
 20
110.49926345412796
 11
309.82506829339104
 21
127.69926328916809
  0
LINE
  8
_1-1_
  6
CONTINUOUS
 62
    3
 10
309.42505707611912
 20
110.09926460884714
 11
309.42505707611912
 21
128.09926213444891
  0
LINE
  8
_1-1_
  6
CONTINUOUS
 62
    3
 10
310.42506037531672
 20
109.09926130964951
 11
318.42503728093328
 21
109.09926130964951
  0
LINE
  8
ADD_LINE
  6
DOT
 62
    3
 10
310.42506037531672
 20
129.09926543364654
 11
309.02680268158787
 21
129.09926543364654
  0
LINE
  8
_1-3_
  6
CONTINUOUS
 62
    7
 10
287.80119200010557
 20
198.32306733002534
 11
282.59349926097974
 21
198.32306733002534
  0
LINE
  8
_1-3_
  6
CONTINUOUS
 62
    7
 10
257.70711537953969
 20
129.94833044103675
 11
282.59349926097974
 21
198.32306733002534
  0
LINE
  8
_1-0_
  6
CONTINUOUS
 62
    3
 10
201.29807343354096
 20
146.16986661343961
 11
202.6875470135663
 21
146.16986661343961
  0
LINE
  8
_1-0_
  6
CONTINUOUS
 62
    3
 10
141.68749422640414
 20
145.82708822714318
 11
141.68749422640414
 21
143.02713342615075
  0
LINE
  8
_1-0_
  6
CONTINUOUS
 62
    3
 10
146.25995945286107
 20
145.39577587230787
 11
141.68749422640414
 21
143.02713342615075
  0
LINE
  8
_1-0_
  6
CONTINUOUS
 62
    3
 10
202.6875470135663
 20
146.16986661343961
 11
202.6875470135663
 21
142.98863178974875
  0
LINE
  8
_1-0_
  6
CONTINUOUS
 62
    3
 10
200.35913828256969
 20
149.05205803948482
 11
194.68749587600297
 21
145.82708822714318
  0
LINE
  8
_1-0_
  6
CONTINUOUS
 62
    3
 10
254.29806271114867
 20
146.16985424144849
 11
255.68756103515625
 21
146.16985424144849
  0
LINE
  8
_1-0_
  6
CONTINUOUS
 62
    3
 10
194.68749587600297
 20
145.82708822714318
 11
194.68749587600297
 21
143.02713342615075
  0
LINE
  8
_1-0_
  6
CONTINUOUS
 62
    3
 10
199.2599611024599
 20
145.39576350031672
 11
194.68749587600297
 21
143.02713342615075
  0
LINE
  8
_1-0_
  6
CONTINUOUS
 62
    3
 10
255.68756103515625
 20
146.16985424144849
 11
255.68756103515625
 21
142.98863178974875
  0
LINE
  8
_1-0_
  6
CONTINUOUS
 62
    3
 10
255.68756103515625
 20
146.16985424144849
 11
255.68756103515625
 21
142.98863178974875
  0
LINE
  8
_1-0_
  6
CONTINUOUS
 62
    3
 10
255.68756103515625
 20
142.38532401419977
 11
255.68756103515625
 21
142.34664916992187
  0
LINE
  8
_1-0_
  6
CONTINUOUS
 62
    3
 10
254.29813694309544
 20
146.16986661343961
 11
255.68761052312078
 21
146.16986661343961
  0
LINE
  8
_1-0_
  6
CONTINUOUS
 62
    3
 10
255.68761052312078
 20
146.16986661343961
 11
255.68761052312078
 21
142.98863178974875
  0
LINE
  8
_1-0_
  6
CONTINUOUS
 62
    3
 10
255.68761052312078
 20
146.16986661343961
 11
255.68761052312078
 21
142.98863178974875
  0
LINE
  8
_1-0_
  6
CONTINUOUS
 62
    3
 10
253.35920179212417
 20
149.05204566749367
 11
247.68753464157518
 21
145.82708822714318
  0
LINE
  8
_1-0_
  6
CONTINUOUS
 62
    3
 10
247.68753464157518
 20
145.82708822714318
 11
247.68753464157518
 21
143.02713342615075
  0
LINE
  8
_1-0_
  6
CONTINUOUS
 62
    3
 10
252.25999986803211
 20
145.39577587230787
 11
247.68753464157518
 21
143.02713342615075
  0
LINE
  8
_1-0_
  6
CONTINUOUS
 62
    3
 10
308.68758742873734
 20
146.16986661343961
 11
308.68758742873734
 21
142.98863178974875
  0
LINE
  8
_1-0_
  6
CONTINUOUS
 62
    3
 10
308.68758742873734
 20
146.16986661343961
 11
308.68758742873734
 21
142.98863178974875
  0
LINE
  8
_1-0_
  6
CONTINUOUS
 62
    3
 10
147.35916137695312
 20
149.05204566749367
 11
141.68749422640414
 21
145.82708822714318
  0
LINE
  8
_1-0_
  6
CONTINUOUS
 62
    3
 10
306.35917869774073
 20
149.05204566749367
 11
300.68753629117401
 21
145.82708822714318
  0
LINE
  8
_1-0_
  6
CONTINUOUS
 62
    3
 10
360.29811549831084
 20
146.16986661343961
 11
361.68761382231844
 21
146.16986661343961
  0
LINE
  8
_1-0_
  6
CONTINUOUS
 62
    3
 10
300.68753629117401
 20
145.82708822714318
 11
300.68753629117401
 21
143.02713342615075
  0
LINE
  8
_1-0_
  6
CONTINUOUS
 62
    3
 10
305.26000151763094
 20
145.39577587230787
 11
300.68753629117401
 21
143.02713342615075
  0
LINE
  8
ADD_LINE
  6
DOT
 62
    4
 10
330.00202900654563
 20
139.82699420001057
 11
340.18524169921875
 21
139.82699420001057
  0
LINE
  8
_1-0_
  6
CONTINUOUS
 62
    3
 10
361.68761382231844
 20
146.16986661343961
 11
361.68761382231844
 21
142.98863178974875
  0
LINE
  8
_1-0_
  6
CONTINUOUS
 62
    3
 10
361.68761382231844
 20
146.16986661343961
 11
361.68761382231844
 21
142.98863178974875
  0
LINE
  8
_1-0_
  6
CONTINUOUS
 62
    3
 10
359.35918034733953
 20
149.05204566749367
 11
353.68753794077281
 21
145.82708822714318
  0
LINE
  8
_1-0_
  6
CONTINUOUS
 62
    3
 10
353.68753794077281
 20
145.82708822714318
 11
353.68753794077281
 21
143.02713342615075
  0
LINE
  8
_1-0_
  6
CONTINUOUS
 62
    3
 10
358.26000316722974
 20
145.39577587230787
 11
353.68753794077281
 21
143.02713342615075
  0
LINE
  8
_1-0_
  6
CONTINUOUS
 62
    3
 10
307.29808910472974
 20
146.16986661343961
 11
308.68758742873734
 21
146.16986661343961
  0
LINE
  8
_1-0_
  6
CONTINUOUS
 62
    3
 10
202.6875470135663
 20
146.16986661343961
 11
202.6875470135663
 21
142.98863178974875
  0
LINE
  8
_1-0_
  6
CONTINUOUS
 62
    3
 10
164.06395989495357
 20
155.28081120671453
 11
164.06395989495357
 21
149.88080823743667
  0
LINE
  8
_1-1_
  6
CONTINUOUS
 62
    7
 10
140.78615755648227
 20
132.3484348606419
 11
140.78615755648227
 21
154.07836501662797
  0
LINE
  8
_1-1_
  6
CONTINUOUS
 62
    7
 10
140.78615755648227
 20
154.07836501662797
 11
137.78614765888938
 21
154.07836501662797
  0
LINE
  8
_1-1_
  6
CONTINUOUS
 62
    7
 10
137.78614765888938
 20
154.07836501662797
 11
137.78614765888938
 21
132.3484348606419
  0
LINE
  8
_1-1_
  6
CONTINUOUS
 62
    7
 10
140.78615755648227
 20
154.07836501662797
 11
137.78614765888938
 21
132.3484348606419
  0
LINE
  8
_1-1_
  6
CONTINUOUS
 62
    3
 10
141.29234520164698
 20
132.47366415487755
 11
141.29234520164698
 21
154.20359431086359
  0
LINE
  8
_1-1_
  6
CONTINUOUS
 62
    7
 10
156.42925365551099
 20
157.71605208113388
 11
156.96976120407518
 21
160.66695754592484
  0
LINE
  8
_1-1_
  6
CONTINUOUS
 62
    7
 10
156.96976120407518
 20
160.66695754592484
 11
139.26430367134714
 21
163.91002758129224
  0
LINE
  8
_1-1_
  6
CONTINUOUS
 62
    7
 10
139.26430367134714
 20
163.91002758129224
 11
138.72379612278294
 21
160.95912211650128
  0
LINE
  8
_1-1_
  6
CONTINUOUS
 62
    7
 10
138.72379612278294
 20
160.95912211650128
 11
156.42925365551099
 21
157.71605208113388
  0
LINE
  8
_1-1_
  6
CONTINUOUS
 62
    7
 10
156.96976120407518
 20
160.66695754592484
 11
138.72379612278294
 21
160.95912211650128
  0
LINE
  8
_1-1_
  6
CONTINUOUS
 62
    3
 10
157.85361625052789
 20
160.89355056350297
 11
157.96318260399073
 21
157.27777429529138
  0
LINE
  8
_1-1_
  6
CONTINUOUS
 62
    7
 10
143.82506499419341
 20
164.50933920370568
 11
141.42507192250847
 21
164.50933920370568
  0
LINE
  8
_1-1_
  6
CONTINUOUS
 62
    7
 10
141.42507192250847
 20
166.07105564426732
 11
141.42507192250847
 21
174.07105729386615
  0
LINE
  8
_1-1_
  6
CONTINUOUS
 62
    7
 10
141.42507192250847
 20
174.07105729386615
 11
137.82506994298987
 21
174.07105729386615
  0
LINE
  8
_1-1_
  6
CONTINUOUS
 62
    7
 10
137.82506994298987
 20
174.07105729386615
 11
137.82506994298987
 21
166.07105564426732
  0
LINE
  8
_1-1_
  6
CONTINUOUS
 62
    7
 10
137.82506994298987
 20
166.07105564426732
 11
141.42507192250847
 21
166.07105564426732
  0
LINE
  8
_1-1_
  6
CONTINUOUS
 62
    7
 10
137.82506994298987
 20
174.07105729386615
 11
141.42507192250847
 21
166.07105564426732
  0
LINE
  8
_1-1_
  6
CONTINUOUS
 62
    7
 10
136.82506664379224
 20
191.02032635663008
 11
136.82506664379224
 21
206.59479502085094
  0
LINE
  8
_1-1_
  6
CONTINUOUS
 62
    7
 10
141.42507192250847
 20
164.50933920370568
 11
141.42507192250847
 21
206.59479502085094
  0
LINE
  8
_1-1_
  6
CONTINUOUS
 62
    7
 10
143.82506499419341
 20
164.50933920370568
 11
143.82506499419341
 21
206.59479502085094
  0
LINE
  8
_1-3_
  6
CONTINUOUS
 62
    7
 10
143.16306449271539
 20
192.24144188133448
 11
152.82442659945102
 21
218.78579629434122
  0
LINE
  8
_1-3_
  6
CONTINUOUS
 62
    7
 10
147.18084386877112
 20
161.37984404692779
 11
159.37556911159206
 21
194.88461881070523
  0
LINE
  8
_1-3_
  6
CONTINUOUS
 62
    7
 10
157.93537036792654
 20
158.86451927391261
 11
166.23281942831505
 21
181.6616202689506
  0
LINE
  8
_1-3_
  6
CONTINUOUS
 62
    7
 10
161.5100839975718
 20
153.35052077834672
 11
167.83692231049409
 21
170.73335389833193
  0
LINE
  8
_1-3_
  6
CONTINUOUS
 62
    7
 10
175.47855686497044
 20
157.60179674303211
 11
168.10475117451438
 21
145.61244655299831
  0
LINE
  8
_1-3_
  6
CONTINUOUS
 62
    7
 10
152.82442659945102
 20
218.78579629434122
 11
156.34462923616977
 21
218.78579629434122
  0
LINE
  8
_1-3_
  6
CONTINUOUS
 62
    7
 10
159.37556911159206
 20
194.88461881070523
 11
162.17267835462417
 21
194.88461881070523
  0
LINE
  8
_1-3_
  6
CONTINUOUS
 62
    7
 10
166.23281942831505
 20
181.6616202689506
 11
168.21659397434544
 21
181.6616202689506
  0
LINE
  8
_1-3_
  6
CONTINUOUS
 62
    7
 10
167.83692231049409
 20
170.73335389833193
 11
170.15924402185391
 21
170.73335389833193
  0
LINE
  8
_1-3_
  6
CONTINUOUS
 62
    7
 10
175.47855686497044
 20
157.60179674303211
 11
179.00922620618667
 21
157.60179674303211
  0
LINE
  8
_1-2_
  6
CONTINUOUS
 62
    3
 10
137.54209776182432
 20
176.61890803156675
 11
137.54209776182432
 21
194.5381783150338
  0
LINE
  8
_1-2_
  6
CONTINUOUS
 62
    3
 10
157.96318260399073
 20
157.27777429529138
 11
157.54909206081081
 21
157.92625221046242
  0
LINE
  8
_1-1_
  6
CONTINUOUS
 62
    7
 10
136.82506664379224
 20
191.02032635663008
 11
136.82506664379224
 21
131.49927087732263
  0
LINE
  8
_1-1_
  6
CONTINUOUS
 62
    7
 10
134.42506120011615
 20
206.59479502085094
 11
134.42506120011615
 21
129.09926543364654
  0
LINE
  8
_1-1_
  6
CONTINUOUS
 62
    3
 10
137.54209776182432
 20
164.61396913270693
 11
137.54209776182432
 21
176.61890803156675
  0
LINE
  8
_1-1_
  6
CONTINUOUS
 62
    3
 10
157.85361625052789
 20
160.89355056350297
 11
137.54209776182432
 21
164.61396913270693
  0
LINE
  8
_1-1_
  6
DASHED1
 62
    3
 10
137.28961016680745
 20
131.99859206740922
 11
137.28961016680745
 21
204.53817419103675
  0
LINE
  8
_1-2_
  6
CONTINUOUS
 62
    3
 10
143.56394174936656
 20
158.88081318623313
 11
143.56394174936656
 21
155.28081120671453
  0
LINE
  8
_1-3_
  6
CONTINUOUS
 62
    7
 10
94.840869388064831
 20
164.61396913270693
 11
129.53004579286318
 21
164.61396913270693
  0
LINE
  8
_1-3_
  6
CONTINUOUS
 62
    7
 10
94.840869388064831
 20
194.61396913270693
 11
129.53004579286318
 21
194.61396913270693
  0
LINE
  8
_1-3_
  6
CONTINUOUS
 62
    7
 10
94.840869388064831
 20
164.61396913270693
 11
94.840869388064831
 21
194.61396913270693
  0
LINE
  8
_1-3_
  6
CONTINUOUS
 62
    7
 10
94.840869388064831
 20
204.6139650087099
 11
129.53004579286318
 21
204.6139650087099
  0
LINE
  8
_1-3_
  6
CONTINUOUS
 62
    7
 10
94.840869388064831
 20
194.61396913270693
 11
94.840869388064831
 21
204.6139650087099
  0
LINE
  8
_1-3_
  6
CONTINUOUS
 62
    7
 10
104.86481125290329
 20
131.49927087732263
 11
129.53004579286318
 21
131.49927087732263
  0
LINE
  8
_1-3_
  6
CONTINUOUS
 62
    7
 10
104.86481125290329
 20
204.6139650087099
 11
129.53004579286318
 21
204.6139650087099
  0
LINE
  8
_1-3_
  6
CONTINUOUS
 62
    7
 10
104.86481125290329
 20
131.49927087732263
 11
104.86481125290329
 21
204.6139650087099
  0
ARC
  8
_1-1_
  6
CONTINUOUS
 62
    3
 10
135.42506449931378
 20
128.09926213444891
 40
0.9999999162313101
 50
90
 51
180
  0
ARC
  8
_1-1_
  6
CONTINUOUS
 62
    3
 10
135.82507571658573
 20
127.69926328916809
 40
0.9999999162313101
 50
90
 51
180
  0
ARC
  8
_1-1_
  6
CONTINUOUS
 62
    3
 10
143.02503018765836
 20
127.69926328916809
 40
0.9999999162313101
 50
0
 51
90
  0
ARC
  8
_1-1_
  6
CONTINUOUS
 62
    3
 10
143.42504140493034
 20
128.09926213444891
 40
0.9999999162313101
 50
0
 51
90
  0
ARC
  8
_1-1_
  6
CONTINUOUS
 62
    3
 10
143.02503018765836
 20
110.49926345412796
 40
0.9999999162313101
 50
270
 51
0
  0
ARC
  8
_1-1_
  6
CONTINUOUS
 62
    3
 10
143.42504140493034
 20
110.09926460884714
 40
0.9999999162313101
 50
270
 51
0
  0
ARC
  8
_1-1_
  6
CONTINUOUS
 62
    3
 10
135.82507571658573
 20
110.49926345412796
 40
0.9999999162313101
 50
180
 51
270
  0
ARC
  8
_1-1_
  6
CONTINUOUS
 62
    3
 10
135.42506449931378
 20
110.09926460884714
 40
0.9999999162313101
 50
180
 51
270
  0
ARC
  8
_1-1_
  6
CONTINUOUS
 62
    3
 10
220.42506037531675
 20
128.09926213444891
 40
0.9999999162313101
 50
90
 51
180
  0
ARC
  8
_1-1_
  6
CONTINUOUS
 62
    3
 10
220.8250715925887
 20
127.69926328916809
 40
0.9999999162313101
 50
90
 51
180
  0
ARC
  8
_1-1_
  6
CONTINUOUS
 62
    3
 10
228.02502606366133
 20
127.69926328916809
 40
0.9999999162313101
 50
0
 51
90
  0
ARC
  8
_1-1_
  6
CONTINUOUS
 62
    3
 10
228.42503728093328
 20
128.09926213444891
 40
0.9999999162313101
 50
0
 51
90
  0
ARC
  8
_1-1_
  6
CONTINUOUS
 62
    3
 10
228.02502606366133
 20
110.49926345412796
 40
0.9999999162313101
 50
270
 51
0
  0
ARC
  8
_1-1_
  6
CONTINUOUS
 62
    3
 10
228.42503728093328
 20
110.09926460884714
 40
0.9999999162313101
 50
270
 51
0
  0
ARC
  8
_1-1_
  6
CONTINUOUS
 62
    3
 10
220.8250715925887
 20
110.49926345412796
 40
0.9999999162313101
 50
180
 51
270
  0
ARC
  8
_1-1_
  6
CONTINUOUS
 62
    3
 10
220.42506037531675
 20
110.09926460884714
 40
0.9999999162313101
 50
180
 51
270
  0
ARC
  8
_1-1_
  6
CONTINUOUS
 62
    3
 10
310.42506037531672
 20
128.09926213444891
 40
0.9999999162313101
 50
90
 51
180
  0
ARC
  8
_1-1_
  6
CONTINUOUS
 62
    3
 10
310.8250715925887
 20
127.69926328916809
 40
0.9999999162313101
 50
90
 51
180
  0
ARC
  8
_1-1_
  6
CONTINUOUS
 62
    3
 10
318.02502606366136
 20
127.69926328916809
 40
0.9999999162313101
 50
0
 51
90
  0
ARC
  8
_1-1_
  6
CONTINUOUS
 62
    3
 10
318.42503728093328
 20
128.09926213444891
 40
0.9999999162313101
 50
0
 51
90
  0
ARC
  8
_1-1_
  6
CONTINUOUS
 62
    3
 10
318.02502606366136
 20
110.49926345412796
 40
0.9999999162313101
 50
270
 51
0
  0
ARC
  8
_1-1_
  6
CONTINUOUS
 62
    3
 10
318.42503728093328
 20
110.09926460884714
 40
0.9999999162313101
 50
270
 51
0
  0
ARC
  8
_1-1_
  6
CONTINUOUS
 62
    3
 10
310.8250715925887
 20
110.49926345412796
 40
0.9999999162313101
 50
180
 51
270
  0
ARC
  8
_1-1_
  6
CONTINUOUS
 62
    3
 10
310.42506037531672
 20
110.09926460884714
 40
0.9999999162313101
 50
180
 51
270
  0
ARC
  8
_1-0_
  6
CONTINUOUS
 62
    3
 10
149.19902492213893
 20
146.60362862251901
 40
3.0627306731971538
 50
42.6905517578125
 51
126.92074584960937
  0
ARC
  8
_1-0_
  6
CONTINUOUS
 62
    3
 10
200.25820757891682
 20
146.14047076251057
 40
1.0402513194728542
 50
309.08184814453125
 51
1.6144714355468908
  0
ARC
  8
_1-0_
  6
CONTINUOUS
 62
    3
 10
178.82024404164909
 20
185.99196562895904
 40
46.274049088761615
 50
233.73811340332031
 51
298.51937866210937
  0
ARC
  8
_1-0_
  6
CONTINUOUS
 62
    3
 10
149.01230683197846
 20
141.67720072978253
 40
4.6263270764737516
 50
47.123046875000007
 51
126.50717163085939
  0
ARC
  8
_1-0_
  6
CONTINUOUS
 62
    3
 10
179.12714365366344
 20
185.43134122281461
 40
48.543530025997683
 50
236.25315856933597
 51
299.03501892089844
  0
ARC
  8
_1-0_
  6
CONTINUOUS
 62
    3
 10
202.19902657173776
 20
146.60362862251901
 40
3.0627306731971538
 50
42.6905517578125
 51
126.92074584960937
  0
ARC
  8
_1-0_
  6
CONTINUOUS
 62
    3
 10
253.25819685652451
 20
146.14045839051943
 40
1.0402513194728542
 50
309.08184814453125
 51
1.6144714355468908
  0
ARC
  8
_1-0_
  6
CONTINUOUS
 62
    3
 10
231.82020857527451
 20
185.99196562895904
 40
46.274049088761615
 50
233.73811340332031
 51
298.51937866210937
  0
ARC
  8
_1-0_
  6
CONTINUOUS
 62
    3
 10
202.01230848157729
 20
141.67718835779138
 40
4.6263270764737516
 50
47.123046875000007
 51
126.50717163085939
  0
ARC
  8
_1-0_
  6
CONTINUOUS
 62
    3
 10
232.12713293127112
 20
185.43134122281461
 40
48.543530025997683
 50
236.25315856933597
 51
299.03501892089844
  0
ARC
  8
_1-0_
  6
CONTINUOUS
 62
    3
 10
253.25824634448904
 20
146.14047076251057
 40
1.0402513194728542
 50
309.08184814453125
 51
1.6144714355468908
  0
ARC
  8
_1-0_
  6
CONTINUOUS
 62
    3
 10
255.19906533730997
 20
146.60362862251901
 40
3.0627306731971538
 50
42.6905517578125
 51
126.92074584960937
  0
ARC
  8
_1-0_
  6
CONTINUOUS
 62
    3
 10
284.8202844568201
 20
185.99196562895904
 40
46.274049088761615
 50
233.73811340332031
 51
298.51937866210937
  0
ARC
  8
_1-0_
  6
CONTINUOUS
 62
    3
 10
255.01234724714951
 20
141.67720072978253
 40
4.6263270764737516
 50
47.123046875000007
 51
126.50717163085939
  0
ARC
  8
_1-0_
  6
CONTINUOUS
 62
    3
 10
285.12718406883448
 20
185.43134122281461
 40
48.543530025997683
 50
236.25315856933597
 51
299.03501892089844
  0
ARC
  8
_1-0_
  6
CONTINUOUS
 62
    3
 10
308.1990669869088
 20
146.60362862251901
 40
3.0627306731971538
 50
42.6905517578125
 51
126.92074584960937
  0
ARC
  8
_1-0_
  6
CONTINUOUS
 62
    3
 10
359.25824964368667
 20
146.14047076251057
 40
1.0402513194728542
 50
309.08184814453125
 51
1.6144714355468908
  0
ARC
  8
_1-0_
  6
CONTINUOUS
 62
    3
 10
337.82026136243667
 20
185.99196562895904
 40
46.274049088761615
 50
233.73811340332031
 51
298.51937866210937
  0
ARC
  8
_1-0_
  6
CONTINUOUS
 62
    3
 10
308.01234889674834
 20
141.67720072978253
 40
4.6263270764737516
 50
47.123046875000007
 51
126.50717163085939
  0
ARC
  8
_1-0_
  6
CONTINUOUS
 62
    3
 10
338.12718571843328
 20
185.43134122281461
 40
48.543530025997683
 50
236.25315856933597
 51
299.03501892089844
  0
ARC
  8
_1-0_
  6
CONTINUOUS
 62
    3
 10
361.1990686365076
 20
146.60362862251901
 40
3.0627306731971538
 50
42.6905517578125
 51
126.92074584960937
  0
ARC
  8
_1-0_
  6
CONTINUOUS
 62
    3
 10
361.01235054634714
 20
141.67720072978253
 40
4.6263270764737516
 50
47.123046875000007
 51
126.50717163085939
  0
ARC
  8
_1-0_
  6
CONTINUOUS
 62
    3
 10
306.25822325010557
 20
146.14047076251057
 40
1.0402513194728542
 50
309.08184814453125
 51
1.6144714355468908
  0
ARC
  8
_1-0_
  6
CONTINUOUS
 62
    3
 10
391.12718736803214
 20
185.43134122281461
 40
48.543530025997683
 50
236.25315856933597
 51
240.35987854003909
  0
ARC
  8
_1-0_
  6
CONTINUOUS
 62
    3
 10
390.82026301203547
 20
185.99196562895904
 40
46.274049088761615
 50
233.73811340332031
 51
239.19131469726562
  0
ARC
  8
_1-0_
  6
CONTINUOUS
 62
    3
 10
143.56394174936656
 20
98.712789174672722
 40
60.168024011560391
 50
70.079711914062528
 51
90.000000000000028
  0
ARC
  8
_1-0_
  6
CONTINUOUS
 62
    3
 10
143.56394174936656
 20
113.6687943742082
 40
41.612016832506335
 50
60.485351562499993
 51
90
  0
TEXT
  8
_0-0_
 62
    7
 10
141.89189395389042
 20
14.594594594594582
 40
2.5
 41
1
 50
0
  1
縮尺
  0
TEXT
  8
_0-0_
 62
    7
 10
377.10214563318203
 20
22.865493362014362
 40
2.5
 41
1
 50
0
  1
ＮＯ
  0
TEXT
  8
_0-0_
 62
    7
 10
14.594594336844779
 20
24.324324324324323
 40
2.5
 41
1
 50
0
  1
和形
  0
TEXT
  8
_0-0_
 62
    7
 10
383.23801896378802
 20
18.523427086907475
 40
3
 41
1
 50
0
  1
Ｊ
  0
TEXT
  8
_1-0_
 62
    7
 10
169.90681828679266
 20
13.3181144095756
 40
2.5
 41
1
 50
0
  1
1/5
  0
TEXT
  8
_1-3_
 62
    7
 10
39.721904445338907
 20
15.395235628695104
 40
2.5
 41
1
 50
0
  1
壁際　　4
  0
TEXT
  8
_1-3_
 62
    7
 10
25.556194717819636
 20
20.211577544341225
 40
2.5
 41
1
 50
0
  1
鉄骨
  0
TEXT
  8
_1-3_
 62
    7
 10
289.63879971890839
 20
197.21641746727198
 40
2.5
 41
1
 50
0
  1
桟瓦
  0
TEXT
  8
_1-3_
 62
    7
 10
289.63879971890839
 20
191.21642241606841
 40
2.5
 41
1
 50
0
  1
瓦桟
  0
TEXT
  8
_1-3_
 62
    7
 10
289.6388079669025
 20
173.21643726245779
 40
2.5
 41
1
 50
0
  1
野地板　ｔ＝12
  0
TEXT
  8
_1-3_
 62
    7
 10
396.60701854808912
 20
14.994520754427526
 40
2.5
 41
1
 50
0
  1
39
  0
TEXT
  8
_1-3_
 62
    7
 10
161.12318915289802
 20
218.05005872571792
 40
2.5
 41
1
 50
0
  1
外壁
  0
TEXT
  8
_1-3_
 62
    7
 10
172.98248084815773
 20
193.6521457981419
 40
2.5
 41
1
 50
0
  1
雨押え板
  0
TEXT
  8
_1-3_
 62
    7
 10
163.0093713708826
 20
193.37801959063557
 40
2.5
 41
1
 50
0
  1
15ｘ90
  0
TEXT
  8
_1-3_
 62
    7
 10
169.74369564571896
 20
180.74354429502745
 40
2.5
 41
1
 50
0
  1
水切り鉄板
  0
TEXT
  8
_1-3_
 62
    7
 10
174.13792790593328
 20
170.24370760531039
 40
2.5
 41
1
 50
0
  1
割のし
  0
TEXT
  8
_1-3_
 62
    7
 10
94.340867738466017
 20
177.73896913270693
 40
2.5
 41
1
 50
90
  1
150
  0
TEXT
  8
_1-3_
 62
    7
 10
94.340867738466017
 20
198.36396707070841
 40
2.5
 41
1
 50
90
  1
50
  0
TEXT
  8
_1-3_
 62
    7
 10
104.33579728410051
 20
150.53413391113281
 40
2.5
 41
1
 50
90
  1
300 以上
  0
TEXT
  8
_1-3_
 62
    7
 10
22.004589957159908
 20
201.06992154508023
 40
3
 41
1
 50
0
  1
下葺き材立上げ長さは、300ｍｍ以上かつ
  0
TEXT
  8
_1-3_
 62
    7
 10
22.391212257179063
 20
195.42283754091005
 40
3
 41
1
 50
0
  1
雨押え板上端より50mm以上とする
  0
TEXT
  8
_1-1_
 62
    7
 10
61.139948045885262
 20
178.12898378114443
 40
2.5
 41
1
 50
0
  1
水切り鉄板立上がり寸法
  0
TEXT
  8
_1-1_
 62
    7
 10
75.145721435546875
 20
152.91858982395482
 40
2.5
 41
1
 50
0
  1
下葺き材立上がり寸法
  0
TEXT
  8
_1-3_
 62
    7
 10
332.55887418179901
 20
191.27372947899073
 40
2.5
 41
1
 50
0
  1
※　地域により瓦桟木の大きさは、異なります
  0
POINT
  8
_1-3_
 62
    7
 10
94.840869388064831
 20
164.61396913270693
  0
POINT
  8
_1-3_
 62
    7
 10
94.840869388064831
 20
194.61396913270693
  0
POINT
  8
_1-3_
 62
    7
 10
94.840869388064831
 20
204.6139650087099
  0
POINT
  8
_1-3_
 62
    7
 10
104.86481125290329
 20
131.49927087732263
  0
POINT
  8
_1-3_
 62
    7
 10
104.86481125290329
 20
204.6139650087099
  0
TEXT
  8
_1-1_
 62
    7
 10
301.69454213735219
 20
191.15411706872891
 40
2.5
 41
1
 50
0
  1
１５×２１　（樹脂桟木）
  0
TEXT
  8
_1-3_
 62
    7
 10
289.63879971890839
 20
185.21642736486487
 40
2.5
 41
1
 50
0
  1
縦桟
  0
TEXT
  8
_1-1_
 62
    7
 10
289.79226602090375
 20
179.31907035209039
 40
2.5
 41
1
 50
0
  1
ルーフィング
  0
TEXT
  8
_1-1_
 62
    7
 10
179.63147358569051
 20
156.38880511647255
 40
2.5
 41
1
 50
0
  1
葺き土
  0
LINE
  8
_1-1_
  6
CONTINUOUS
 62
    7
 10
168.10475117451438
 20
145.61244655299831
 11
155.99477085451272
 21
151.28266558262305
  0
LINE
  8
ADD_LINE
  6
DOT
 62
    7
 10
138.72379612278294
 20
160.95912211650128
 11
137.28961016680745
 21
161.29444553292512
  0
LINE
  8
ADD_LINE
  6
DOT
 62
    7
 10
137.78614765888938
 20
154.07836501662797
 11
137.28961016680745
 21
154.07836501662797
  0
LINE
  8
ADD_LINE
  6
DOT
 62
    7
 10
144.16972944005551
 20
159.96160238998709
 11
144.65087993992921
 21
158.87099459027337
  0
ARC
  8
_1-2_
  6
CONTINUOUS
 62
    1
 10
175.27479331866269
 20
152.87617270006766
 40
19.345762614884784
 50
178.45135118617307
 51
204.58419270033295
  0
SOLID
  8
ADD_LINE
  6
DOT
 62
    8
 10
137.28961016680745
 20
161.29444553292512
 11
137.28961016680745
 21
154.07836501662797
 12
141.27886011619194
 22
154.07933729845922
 13
141.27886011619194
 23
154.07933729845922
  0
SOLID
  8
ADD_LINE
  6
DOT
 62
    8
 10
137.28961016680745
 20
161.29444553292512
 11
141.27886011619194
 21
154.07933729845922
 12
141.29234520164698
 22
154.20359431086359
 13
141.29234520164698
 23
154.20359431086359
  0
SOLID
  8
ADD_LINE
  6
DOT
 62
    8
 10
137.28961016680745
 20
161.29444553292512
 11
143.56394174936656
 21
155.28081120671453
 12
143.56394174936656
 22
158.88081318623313
 13
143.56394174936656
 23
158.88081318623313
  0
SOLID
  8
ADD_LINE
  6
DOT
 62
    8
 10
137.28961016680745
 20
161.29444553292512
 11
143.56394174936656
 21
158.88081318623313
 12
144.65087993992921
 22
158.87099459027337
 13
144.65087993992921
 23
158.87099459027337
  0
SOLID
  8
ADD_LINE
  6
DOT
 62
    8
 10
144.65087993992921
 20
158.87099459027337
 11
144.16972944005551
 21
159.96160238998709
 12
138.72379612278294
 22
160.95912211650128
 13
138.72379612278294
 23
160.95912211650128
  0
SOLID
  8
ADD_LINE
  6
DOT
 62
    8
 10
144.65087993992921
 20
158.87099459027337
 11
138.72379612278294
 21
160.95912211650128
 12
137.28961016680745
 22
161.29444553292512
 13
137.28961016680745
 23
161.29444553292512
  0
SOLID
  8
ADD_LINE
  6
DOT
 62
    8
 10
151.45021287104288
 20
148.6802778454867
 11
152.42966292919317
 21
147.9686901519168
 12
153.55543035595139
 22
147.24127119924225
 13
153.55543035595139
 23
147.24127119924225
  0
SOLID
  8
ADD_LINE
  6
DOT
 62
    8
 10
151.45021287104288
 20
148.6802778454867
 11
153.55543035595139
 21
147.24127119924225
 12
154.62923928609001
 22
146.54849124431411
 13
154.62923928609001
 23
146.54849124431411
  0
SOLID
  8
ADD_LINE
  6
DOT
 62
    8
 10
151.45021287104288
 20
148.6802778454867
 11
154.62923928609001
 21
146.54849124431411
 12
156.23995268129795
 22
145.63055780403431
 13
156.23995268129795
 23
145.63055780403431
  0
SOLID
  8
ADD_LINE
  6
DOT
 62
    8
 10
151.45021287104288
 20
148.6802778454867
 11
156.23995268129795
 21
145.63055780403431
 12
157.68270624974969
 22
144.82775647628438
 13
157.68270624974969
 23
144.82775647628438
  0
SOLID
  8
ADD_LINE
  6
DOT
 62
    8
 10
151.45021287104288
 20
148.6802778454867
 11
157.68270624974969
 21
144.82775647628438
 12
155.81475280361661
 22
148.91069636797926
 13
155.81475280361661
 23
148.91069636797926
  0
SOLID
  8
ADD_LINE
  6
DOT
 62
    8
 10
151.45021287104288
 20
148.6802778454867
 11
155.81475280361661
 21
148.91069636797926
 12
155.9360969707578
 22
153.39900605306278
 13
155.9360969707578
 23
153.39900605306278
  0
SOLID
  8
ADD_LINE
  6
DOT
 62
    8
 10
151.45021287104288
 20
148.6802778454867
 11
155.9360969707578
 21
153.39900605306278
 12
154.38676630186518
 22
153.82268077105959
 13
154.38676630186518
 23
153.82268077105959
  0
SOLID
  8
ADD_LINE
  6
DOT
 62
    8
 10
151.45021287104288
 20
148.6802778454867
 11
154.38676630186518
 21
153.82268077105959
 12
153.15708188186773
 22
154.16907074852367
 13
153.15708188186773
 23
154.16907074852367
  0
SOLID
  8
ADD_LINE
  6
DOT
 62
    8
 10
151.45021287104288
 20
148.6802778454867
 11
153.15708188186773
 21
154.16907074852367
 12
151.63296598102579
 22
154.49814122711453
 13
151.63296598102579
 23
154.49814122711453
  0
SOLID
  8
ADD_LINE
  6
DOT
 62
    8
 10
151.45021287104288
 20
148.6802778454867
 11
151.63296598102579
 21
154.49814122711453
 12
150.03957208469109
 22
154.7579337102126
 13
150.03957208469109
 23
154.7579337102126
  0
LINE
  8
_1-3_
  6
CONTINUOUS
 62
    7
 10
154.06254123997044
 20
133.70864868164062
 11
164.35507757755826
 21
105.65171920667262
  0
LINE
  8
_1-3_
  6
CONTINUOUS
 62
    7
 10
164.35507757755826
 20
105.65171920667262
 11
173.40860375999068
 21
105.65171920667262
  0
TEXT
  8
_1-3_
 62
    7
 10
174.32924279807662
 20
105.16992294202419
 40
2.5
 41
1
 50
0
  1
捨谷
  0
LINE
  8
_1-1_
  6
CONTINUOUS
 62
    7
 10
143.09300479843171
 20
155.16726039051139
 11
143.09300479843171
 21
154.8672603905114
  0
LINE
  8
_1-1_
  6
DASHED1
 62
    7
 10
143.49300479843168
 20
154.64749756290266
 11
143.49300479843168
 21
151.14881101567204
  0
LINE
  8
_1-1_
  6
DASHED1
 62
    7
 10
143.89300479843169
 20
154.64749756290266
 11
143.89300479843169
 21
151.14881101567204
  0
LINE
  8
_1-1_
  6
DASHED1
 62
    7
 10
143.89300479843169
 20
151.14881101567204
 11
143.6930047984317
 21
150.77312727640057
  0
LINE
  8
_1-1_
  6
DASHED1
 62
    7
 10
143.49300479843168
 20
151.14881101567204
 11
143.6930047984317
 21
150.77312727640057
  0
LINE
  8
ADD_LINE
  6
DOT
 62
    4
 10
143.6930047984317
 20
155.20964658536522
 11
143.6930047984317
 21
150.77312727640057
  0
LINE
  8
_1-1_
  6
CONTINUOUS
 62
    7
 10
143.09300479843171
 20
154.8672603905114
 11
144.2930047984317
 21
154.8672603905114
  0
LINE
  8
_1-1_
  6
CONTINUOUS
 62
    7
 10
144.2930047984317
 20
154.8672603905114
 11
144.2930047984317
 21
155.16726039051139
  0
LINE
  8
_1-1_
  6
CONTINUOUS
 62
    7
 10
144.2930047984317
 20
155.16726039051139
 11
143.09300479843171
 21
155.16726039051139
  0
LINE
  8
_1-1_
  6
CONTINUOUS
 62
    7
 10
143.49300479843168
 20
154.8672603905114
 11
143.49300479843168
 21
154.64749756290266
  0
LINE
  8
_1-1_
  6
CONTINUOUS
 62
    7
 10
143.89300479843169
 20
154.8672603905114
 11
143.89300479843169
 21
154.64749756290266
  0
LINE
  8
_1-1_
  6
CONTINUOUS
 62
    7
 10
143.31752673081371
 20
159.02097960927975
 11
143.31752673081371
 21
155.21271751216111
  0
LINE
  8
_1-1_
  6
CONTINUOUS
 62
    7
 10
143.31752673081371
 20
159.02097960927975
 11
144.38931306952378
 21
159.02097960927975
  0
LINE
  8
_1-1_
  6
DASHED1
 62
    7
 10
144.38931306952378
 20
159.02097960927975
 11
144.38931306952378
 21
155.21271751216111
  0
LINE
  8
_1-1_
  6
CONTINUOUS
 62
    7
 10
143.31752673081371
 20
155.21271751216111
 11
144.37935293521176
 21
155.21271751216111
  0
LINE
  8
_1-1_
  6
CONTINUOUS
 62
    7
 10
144.37935293521176
 20
155.21271751216111
 11
144.38931306952378
 21
155.21271751216111
  0
LINE
  8
_1-1_
  6
CONTINUOUS
 62
    7
 10
144.38931306952378
 20
155.21271751216111
 11
144.38931306952378
 21
154.86168443563702
  0
LINE
  8
_1-1_
  6
CONTINUOUS
 62
    7
 10
141.28269629662503
 20
154.79739002424301
 11
141.28269629662503
 21
150.07953970477422
  0
LINE
  8
_1-1_
  6
CONTINUOUS
 62
    7
 10
141.28269629662503
 20
154.79739002424301
 11
149.55485533462505
 21
154.79739002424301
  0
LINE
  8
_1-1_
  6
CONTINUOUS
 62
    7
 10
149.55485533462505
 20
154.79739002424301
 11
149.55485533462505
 21
150.07953970477422
  0
LINE
  8
_1-1_
  6
CONTINUOUS
 62
    7
 10
141.28269629662503
 20
150.07953970477422
 11
149.55485533462505
 21
150.07953970477422
  0
LINE
  8
_1-1_
  6
CONTINUOUS
 62
    7
 10
149.55485533462505
 20
150.07953970477422
 11
141.28269629662503
 21
154.79739002424301
  0
LINE
  8
ADD_LINE
  6
DOT
 62
    7
 10
149.55485533462505
 20
150.07953970477422
 11
149.55485533462505
 21
149.65881764931436
  0
LINE
  8
ADD_LINE
  6
DOT
 62
    7
 10
143.09300479843171
 20
154.8672603905114
 11
143.09300479843171
 21
154.72502375844027
  0
LINE
  8
ADD_LINE
  6
DOT
 62
    7
 10
144.2930047984317
 20
154.8672603905114
 11
144.2930047984317
 21
154.64440607373854
  0
LINE
  8
ADD_LINE
  6
DOT
 62
    7
 10
143.56394174936656
 20
155.28081120671453
 11
143.56394174936656
 21
155.07436705881437
  0
SOLID
  8
_1-2_
  6
CONTINUOUS
 62
    8
 10
137.28961016680745
 20
161.29444553292512
 11
141.29234520164698
 21
154.20359431086359
 12
141.28269629662503
 22
154.79739002424301
 13
141.28269629662503
 23
154.79739002424301
  0
SOLID
  8
_1-2_
  6
CONTINUOUS
 62
    8
 10
137.28961016680745
 20
161.29444553292512
 11
141.28269629662503
 21
154.79739002424301
 12
143.09300479843171
 22
154.79739002424301
 13
143.09300479843171
 23
154.79739002424301
  0
SOLID
  8
_1-2_
  6
CONTINUOUS
 62
    8
 10
137.28961016680745
 20
161.29444553292512
 11
143.09300479843171
 21
154.79739002424301
 12
143.09300479843171
 22
155.16726039051139
 13
143.09300479843171
 23
155.16726039051139
  0
SOLID
  8
_1-2_
  6
CONTINUOUS
 62
    8
 10
137.28961016680745
 20
161.29444553292512
 11
143.09300479843171
 21
155.16726039051139
 12
143.56394174936656
 22
155.16726039051139
 13
143.56394174936656
 23
155.16726039051139
  0
SOLID
  8
_1-2_
  6
CONTINUOUS
 62
    8
 10
137.28961016680745
 20
161.29444553292512
 11
143.56394174936656
 21
155.16726039051139
 12
143.56394174936656
 22
155.28081120671453
 13
143.56394174936656
 23
155.28081120671453
  0
LINE
  8
ADD_LINE
  6
DOT
 62
    7
 10
144.2930047984317
 20
155.16726039051139
 11
144.2930047984317
 21
155.28449215257598
  0
SOLID
  8
ADD_LINE
  6
DOT
 62
    8
 10
144.2930047984317
 20
155.27442394448724
 11
144.2930047984317
 21
154.79739002424301
 12
149.55485533462505
 22
154.79739002424301
 13
149.55485533462505
 23
154.79739002424301
  0
SOLID
  8
ADD_LINE
  6
DOT
 62
    8
 10
144.2930047984317
 20
155.27442394448724
 11
149.55485533462505
 21
154.79739002424301
 12
150.03957208469109
 22
154.7579337102126
 13
150.03957208469109
 23
154.7579337102126
  0
SOLID
  8
ADD_LINE
  6
DOT
 62
    8
 10
144.2930047984317
 20
155.27442394448724
 11
150.03957208469109
 21
154.7579337102126
 12
149.52146962793992
 22
154.85266302217568
 13
149.52146962793992
 23
154.85266302217568
  0
SOLID
  8
ADD_LINE
  6
DOT
 62
    8
 10
144.2930047984317
 20
155.27442394448724
 11
149.52146962793992
 21
154.85266302217568
 12
148.79305776074705
 22
154.94696634426762
 13
148.79305776074705
 23
154.94696634426762
  0
SOLID
  8
ADD_LINE
  6
DOT
 62
    8
 10
144.2930047984317
 20
155.27442394448724
 11
148.79305776074705
 21
154.94696634426762
 12
147.46188762732808
 22
155.10035174943107
 13
147.46188762732808
 23
155.10035174943107
  0
SOLID
  8
ADD_LINE
  6
DOT
 62
    8
 10
144.2930047984317
 20
155.27442394448724
 11
147.46188762732808
 21
155.10035174943107
 12
146.60181305341206
 22
155.16841520492085
 13
146.60181305341206
 23
155.16841520492085
  0
SOLID
  8
ADD_LINE
  6
DOT
 62
    8
 10
144.2930047984317
 20
155.27442394448724
 11
146.60181305341206
 21
155.16841520492085
 12
145.79742676126037
 22
155.21791589982249
 13
145.79742676126037
 23
155.21791589982249
  0
SOLID
  8
ADD_LINE
  6
DOT
 62
    8
 10
144.2930047984317
 20
155.27442394448724
 11
145.79742676126037
 21
155.21791589982249
 12
144.98685288224598
 22
155.24885383413601
 13
144.98685288224598
 23
155.24885383413601
  0
SOLID
  8
ADD_LINE
  6
DOT
 62
    8
 10
144.2930047984317
 20
155.27442394448724
 11
144.98685288224598
 21
155.24885383413601
 12
144.55372180185663
 22
155.26741659472412
 13
144.55372180185663
 23
155.26741659472412
  0
SOLID
  8
ADD_LINE
  6
DOT
 62
    8
 10
149.55485533462505
 20
154.79739002424301
 11
149.55485533462505
 21
149.65881764931436
 12
150.01496268078128
 22
149.5448232205996
 13
150.01496268078128
 23
149.5448232205996
  0
SOLID
  8
ADD_LINE
  6
DOT
 62
    8
 10
149.55485533462505
 20
154.79739002424301
 11
150.01496268078128
 21
149.5448232205996
 12
150.68287763511705
 22
149.29249979340608
 13
150.68287763511705
 23
149.29249979340608
  0
SOLID
  8
ADD_LINE
  6
DOT
 62
    8
 10
149.55485533462505
 20
154.79739002424301
 11
150.68287763511705
 21
149.29249979340608
 12
151.00941383501456
 22
149.11438913891655
 13
151.00941383501456
 23
149.11438913891655
  0
SOLID
  8
ADD_LINE
  6
DOT
 62
    8
 10
149.55485533462505
 20
154.79739002424301
 11
151.00941383501456
 21
149.11438913891655
 12
151.26173726220807
 22
148.87690826626383
 13
151.26173726220807
 23
148.87690826626383
  0
SOLID
  8
ADD_LINE
  6
DOT
 62
    8
 10
149.55485533462505
 20
154.79739002424301
 11
151.26173726220807
 21
148.87690826626383
 12
151.45021287104288
 22
148.6802778454867
 13
151.45021287104288
 23
148.6802778454867
  0
SOLID
  8
ADD_LINE
  6
DOT
 62
    8
 10
149.55485533462505
 20
154.79739002424301
 11
151.45021287104288
 21
148.6802778454867
 12
150.03957208469109
 22
154.7579337102126
 13
150.03957208469109
 23
154.7579337102126
  0
ENDSEC
  0
EOF
