  0
SECTION
  2
HEADER
  9
$ACADVER
  1
AC1009
  9
$INSBASE
 10
0
 20
0
 30
0
  9
$EXTMIN
 10
0
 20
0
  9
$EXTMAX
 10
420
 20
297
  9
$LIMMIN
 10
0
 20
0
  9
$LIMMAX
 10
420
 20
297
  9
$LTSCALE
 40
1
  0
ENDSEC
  0
SECTION
  2
TABLES
  0
TABLE
  2
LTYPE
 70
     9
  0
LTYPE
  2
CONTINUOUS
 70
    64
  3
実線
 72
    65
 73
     0
 40
0.0
  0
LTYPE
  2
DASHED1
 70
    64
  3
--  --  --  --  --  --  --  --  
 72
    65
 73
     2
 40
2.5
 49
1.25
 49
-1.25
  0
LTYPE
  2
DASHED2
 70
    64
  3
----    ----    ----    ----    
 72
    65
 73
     2
 40
5.0
 49
2.5
 49
-2.5
  0
LTYPE
  2
DASHED3
 70
    64
  3
------  ------  ------  ------  
 72
    65
 73
     2
 40
5.0
 49
3.75
 49
-1.25
  0
LTYPE
  2
CENTER1
 70
    64
  3
----- - ----- - ----- - ----- - 
 72
    65
 73
     4
 40
10.0
 49
6.25
 49
-1.25
 49
1.25
 49
-1.25
  0
LTYPE
  2
CENTER2
 70
    64
  3
----------  --  ----------  --  
 72
    65
 73
     4
 40
20.0
 49
12.5
 49
-2.5
 49
2.5
 49
-2.5
  0
LTYPE
  2
PHANTOM1
 70
    64
  3
--- - - --- - - --- - - --- - - 
 72
    65
 73
     6
 40
10.0
 49
3.25
 49
-1.25
 49
1.25
 49
-1.25
 49
1.25
 49
-1.25
  0
LTYPE
  2
PHANTOM2
 70
    64
  3
--------  -  -  --------  -  -  
 72
    65
 73
     6
 40
20.0
 49
10.0
 49
-2.5
 49
1.25
 49
-2.5
 49
1.25
 49
-2.5
  0
LTYPE
  2
DOT
 70
    64
  3
-   -   -   -   -   -   -   -   
 72
    65
 73
     2
 40
2.5
 49
0.625
 49
-1.875
  0
LTYPE
  2
DUMMY
 70
    64
  3
ダミー
 72
    65
 73
     0
 40
0.0
  0
LTYPE
  2
RAND1
 70
    64
  3
ランダム線1
 72
    65
 73
     4
 40
10.0
 49
1.0
 49
-2.0
 49
3.0
 49
-4.0
  0
LTYPE
  2
RAND2
 70
    64
  3
ランダム線2
 72
    65
 73
     4
 40
14.0
 49
2.0
 49
-3.0
 49
4.0
 49
-5.0
  0
LTYPE
  2
RAND3
 70
    64
  3
ランダム線3
 72
    65
 73
     4
 40
18.0
 49
3.0
 49
-4.0
 49
5.0
 49
-6.0
  0
LTYPE
  2
RAND4
 70
    64
  3
ランダム線4
 72
    65
 73
     4
 40
22.0
 49
4.0
 49
-5.0
 49
6.0
 49
-7.0
  0
LTYPE
  2
RAND5
 70
    64
  3
ランダム線5
 72
    65
 73
     4
 40
26.0
 49
5.0
 49
-6.0
 49
7.0
 49
-8.0
  0
LTYPE
  2
LONG1
 70
    64
  3
----------  --  ----------  --  
 72
    65
 73
     4
 40
40.0
 49
32.5
 49
-2.5
 49
2.5
 49
-2.5
  0
LTYPE
  2
LONG2
 70
    64
  3
--------  -  -  --------  -  -  
 72
    65
 73
     6
 40
40.0
 49
30.0
 49
-2.5
 49
1.25
 49
-2.5
 49
1.25
 49
-2.5
  0
LTYPE
  2
LONG3
 70
    64
  3
+++++++++++++++..+++++++++++++++
 72
    65
 73
     2
 40
40.0
 49
37.5
 49
-2.5
  0
LTYPE
  2
LONG4
 70
    64
  3
+++++++++++++++..+++++++++++++++
 72
    65
 73
     2
 40
80.0
 49
75.0
 49
-5.0
  0
LTYPE
  2
LONG5
 70
    64
  3
----------  --  ----------  --  
 72
    65
 73
     4
 40
60.0
 49
37.5
 49
-7.5
 49
7.5
 49
-7.5
  0
LTYPE
  2
dashed
 70
   64
  3
-------   -------------   ------
 72
   65
 73
    2
 40
7.5
 49
6
 49
-1.5
  0
LTYPE
  2
dashed_spaced
 70
   64
  3
----        --------        ----
 72
   65
 73
    2
 40
12
 49
6
 49
-6
  0
LTYPE
  2
long_dashed_dotted
 70
   64
  3
------------- --- --------------
 72
   65
 73
    4
 40
15.25
 49
12
 49
-1.5
 49
0.25
 49
-1.5
  0
LTYPE
  2
long_dashed_double-dotted
 70
   64
  3
----------- --- --- ------------
 72
   65
 73
    6
 40
17
 49
12
 49
-1.5
 49
0.25
 49
-1.5
 49
0.25
 49
-1.5
  0
LTYPE
  2
long_dashed_triplicate-dotted
 70
   64
  3
--------- --- --- --- ----------
 72
   65
 73
    8
 40
18.75
 49
12
 49
-1.5
 49
0.25
 49
-1.5
 49
0.25
 49
-1.5
 49
0.25
 49
-1.5
  0
LTYPE
  2
dotted
 70
   64
  3
   -       -       -       -    
 72
   65
 73
    2
 40
1.75
 49
0.25
 49
-1.5
  0
LTYPE
  2
chain
 70
   64
  3
-------------- -- --------------
 72
   65
 73
    4
 40
18.5
 49
12
 49
-1.5
 49
3.5
 49
-1.5
  0
LTYPE
  2
chain_double_dash
 70
   64
  3
------------ -- -- -------------
 72
   65
 73
    6
 40
23.5
 49
12
 49
-1.5
 49
3.5
 49
-1.5
 49
3.5
 49
-1.5
  0
LTYPE
  2
dashed_dotted
 70
   64
  3
-----------     -     ----------
 72
   65
 73
    4
 40
9.25
 49
6
 49
-1.5
 49
0.25
 49
-1.5
  0
LTYPE
  2
double-dashed_dotted
 70
   64
  3
------   -----------   -   -----
 72
   65
 73
    6
 40
16.75
 49
6
 49
-1.5
 49
6
 49
-1.5
 49
0.25
 49
-1.5
  0
LTYPE
  2
dashed_double-dotted
 70
   64
  3
---------    -    -    ---------
 72
   65
 73
    6
 40
11
 49
6
 49
-1.5
 49
0.25
 49
-1.5
 49
0.25
 49
-1.5
  0
LTYPE
  2
double-dashed_double-dotted
 70
   64
  3
-----   ---------   -   -   ----
 72
   65
 73
    8
 40
18.5
 49
6
 49
-1.5
 49
6
 49
-1.5
 49
0.25
 49
-1.5
 49
0.25
 49
-1.5
  0
LTYPE
  2
dashed_triplicate-dotted
 70
   64
  3
-------    -    -    -    ------
 72
   65
 73
    8
 40
12.75
 49
6
 49
-1.5
 49
0.25
 49
-1.5
 49
0.25
 49
-1.5
 49
0.25
 49
-1.5
  0
LTYPE
  2
double-dashed_triplicate-dotted
 70
   64
  3
-----  ---------  -  -  -  -----
 72
   65
 73
   10
 40
20.25
 49
6
 49
-1.5
 49
6
 49
-1.5
 49
0.25
 49
-1.5
 49
0.25
 49
-1.5
 49
0.25
 49
-1.5
  0
LTYPE
  2
undefined
 70
   64
  3
--------------------------------
 72
   65
 73
    0
 40
0
  0
ENDTAB
  0
TABLE
  2
STYLE
  5
3
100
AcDbSymbolTable
 70
     1
  0
STYLE
  5
10
100
AcDbSymbolTableRecord
100
AcDbTextStyleTableRecord
  2
STANDARD
 70
     0
 40
0.0
 41
1.0
 50
0.0
 71
     0
 42
0.2
  3
txt
  4
bigfont.shx
  0
STYLE
  5
26
100
AcDbSymbolTableRecord
100
AcDbTextStyleTableRecord
  2
TATEGAKI
 70
    68
 40
0.0
 41
1.0
 50
0.0
 71
     0
 42
1.0
  3
txt
  4
bigfont.shx
  0
ENDTAB
  0
TABLE
  2
LAYER
 70
   13
  0
LAYER
  2
_0-0_
 70
   64
 62
    7
  6
CONTINUOUS
  0
LAYER
  2
_1-0_
 70
   64
 62
    7
  6
CONTINUOUS
  0
LAYER
  2
_1-1_
 70
   64
 62
    7
  6
CONTINUOUS
  0
LAYER
  2
_1-3_
 70
   64
 62
    7
  6
CONTINUOUS
  0
LAYER
  2
_1-4_
 70
   64
 62
    7
  6
CONTINUOUS
  0
LAYER
  2
_1-6_
 70
   64
 62
    7
  6
CONTINUOUS
  0
LAYER
  2
_1-7_
 70
   64
 62
    7
  6
CONTINUOUS
  0
LAYER
  2
_1-8_
 70
   64
 62
    7
  6
CONTINUOUS
  0
LAYER
  2
_1-9_
 70
   64
 62
    7
  6
CONTINUOUS
  0
LAYER
  2
_1-a_
 70
   64
 62
    7
  6
CONTINUOUS
  0
LAYER
  2
_1-b_
 70
   64
 62
    7
  6
CONTINUOUS
  0
LAYER
  2
_1-c_
 70
   64
 62
    7
  6
CONTINUOUS
  0
LAYER
  2
ADD_LINE
 70
   64
 62
    7
  6
CONTINUOUS
  0
ENDTAB
  0
ENDSEC
  0
SECTION
  2
BLOCKS
  0
ENDSEC
  0
SECTION
  2
ENTITIES
  0
LINE
  8
_1-0_
  6
CONTINUOUS
 62
    7
 10
275.56780045183422
 20
147.80548127827501
 11
275.56780045183422
 21
187.52101295440085
  0
LINE
  8
_0-0_
  6
CONTINUOUS
 62
    5
 10
6.7567526327597136
 20
280.13513513513516
 11
406.75677325274495
 21
280.13513513513516
  0
LINE
  8
_0-0_
  6
CONTINUOUS
 62
    5
 10
406.75677325274495
 20
10.13513513513513
 11
6.7567526327597136
 21
10.13513513513513
  0
LINE
  8
_0-0_
  6
CONTINUOUS
 62
    5
 10
406.75677325274495
 20
30.135133073136615
 11
6.7567402607685949
 21
30.135133073136615
  0
LINE
  8
_0-0_
  6
CONTINUOUS
 62
    5
 10
371.75678150073907
 20
10.13513513513513
 11
371.75678150073907
 21
30.135133073136615
  0
LINE
  8
_0-0_
  6
CONTINUOUS
 62
    5
 10
137.02703939901818
 20
30.135133073136615
 11
137.02703939901818
 21
10.13513513513513
  0
LINE
  8
_0-0_
  6
CONTINUOUS
 62
    5
 10
214.86486486486487
 20
30.135133073136615
 11
214.86486486486487
 21
10.13513513513513
  0
LINE
  8
_0-0_
  6
CONTINUOUS
 62
    5
 10
137.02703939901818
 20
20.135134104135886
 11
214.86486486486487
 21
20.135134104135886
  0
LINE
  8
_0-0_
  6
CONTINUOUS
 62
    5
 10
396.48648648648651
 20
25.945945945945951
 11
383.91891891891896
 21
13.378379924877265
  0
LINE
  8
_1-1_
  6
CONTINUOUS
 62
    7
 10
124.53001692488388
 20
118.15789712441935
 11
123.29891720333616
 21
120.8936660354202
  0
LINE
  8
_1-1_
  6
CONTINUOUS
 62
    7
 10
123.29891720333616
 20
120.8936660354202
 11
127.67614003774283
 21
122.86342311549832
  0
LINE
  8
_1-1_
  6
CONTINUOUS
 62
    7
 10
127.67614003774283
 20
122.86342311549832
 11
128.90723975929055
 21
120.12765420449747
  0
LINE
  8
_1-1_
  6
CONTINUOUS
 62
    7
 10
128.90723975929055
 20
120.12765420449747
 11
124.53001692488388
 21
118.15789712441935
  0
LINE
  8
_1-1_
  6
CONTINUOUS
 62
    7
 10
167.39031817461995
 20
137.44502711940456
 11
166.15921845307221
 21
140.18079603040542
  0
LINE
  8
_1-1_
  6
CONTINUOUS
 62
    7
 10
166.15921845307221
 20
140.18079603040542
 11
170.53644128747891
 21
142.15055311048354
  0
LINE
  8
_1-1_
  6
CONTINUOUS
 62
    7
 10
170.53644128747891
 20
142.15055311048354
 11
171.76754100902662
 21
139.41478419948268
  0
LINE
  8
_1-1_
  6
CONTINUOUS
 62
    7
 10
171.76754100902662
 20
139.41478419948268
 11
167.39031817461995
 21
137.44502711940456
  0
LINE
  8
_1-1_
  6
CONTINUOUS
 62
    7
 10
210.25063179634714
 20
156.73216948638091
 11
209.01951970280828
 21
159.46793839738177
  0
LINE
  8
_1-1_
  6
CONTINUOUS
 62
    7
 10
209.01951970280828
 20
159.46793839738177
 11
213.39675490920609
 21
161.4376954774599
  0
LINE
  8
_1-1_
  6
CONTINUOUS
 62
    7
 10
213.39675490920609
 20
161.4376954774599
 11
214.62784225876268
 21
158.70192656645904
  0
LINE
  8
_1-1_
  6
CONTINUOUS
 62
    7
 10
214.62784225876268
 20
158.70192656645904
 11
210.25063179634714
 21
156.73216948638091
  0
LINE
  8
_1-1_
  6
CONTINUOUS
 62
    7
 10
253.11094541807435
 20
176.01931185335727
 11
251.8798333245355
 21
178.75508076435813
  0
LINE
  8
_1-1_
  6
CONTINUOUS
 62
    7
 10
251.8798333245355
 20
178.75508076435813
 11
256.25706853093328
 21
180.72483784443625
  0
LINE
  8
_1-1_
  6
CONTINUOUS
 62
    7
 10
256.25706853093328
 20
180.72483784443625
 11
257.4881558804899
 21
177.98906893343539
  0
LINE
  8
_1-1_
  6
CONTINUOUS
 62
    7
 10
257.4881558804899
 20
177.98906893343539
 11
253.11094541807435
 21
176.01931185335727
  0
LINE
  8
_1-1_
  6
CONTINUOUS
 62
    7
 10
251.8798333245355
 20
178.75508076435813
 11
257.4881558804899
 21
177.98906893343539
  0
LINE
  8
_1-1_
  6
CONTINUOUS
 62
    7
 10
209.01951970280828
 20
159.46793839738177
 11
214.62784225876268
 21
158.70192656645904
  0
LINE
  8
_1-1_
  6
CONTINUOUS
 62
    7
 10
166.15921845307221
 20
140.18079603040542
 11
171.76754100902662
 21
139.41478419948268
  0
LINE
  8
_1-1_
  6
CONTINUOUS
 62
    7
 10
123.29891720333616
 20
120.8936660354202
 11
128.90723975929055
 21
120.12765420449747
  0
LINE
  8
_1-1_
  6
CONTINUOUS
 62
    7
 10
166.15923082506336
 20
140.18080840239654
 11
170.53645365947003
 21
142.15056548247466
  0
LINE
  8
_1-1_
  6
CONTINUOUS
 62
    7
 10
210.25063179634714
 20
156.73216948638091
 11
209.01954444679055
 21
159.46793839738177
  0
LINE
  8
_1-1_
  6
CONTINUOUS
 62
    7
 10
209.01954444679055
 20
159.46793839738177
 11
213.39675490920609
 21
161.4376954774599
  0
LINE
  8
_1-1_
  6
CONTINUOUS
 62
    7
 10
213.39675490920609
 20
161.4376954774599
 11
214.62786700274495
 21
158.70192656645904
  0
LINE
  8
_1-1_
  6
CONTINUOUS
 62
    7
 10
214.62786700274495
 20
158.70192656645904
 11
210.25063179634714
 21
156.73216948638091
  0
LINE
  8
_1-1_
  6
CONTINUOUS
 62
    7
 10
209.01954444679055
 20
159.46793839738177
 11
214.62786700274495
 21
158.70192656645904
  0
LINE
  8
_1-1_
  6
CONTINUOUS
 62
    7
 10
209.01954444679055
 20
159.46795076937289
 11
213.39675490920609
 21
161.43770784945102
  0
LINE
  8
_1-1_
  6
CONTINUOUS
 62
    7
 10
253.11094541807435
 20
176.01931185335727
 11
251.8798333245355
 21
178.75508076435813
  0
LINE
  8
_1-1_
  6
CONTINUOUS
 62
    7
 10
251.8798333245355
 20
178.75508076435813
 11
256.25706853093328
 21
180.72483784443625
  0
LINE
  8
_1-1_
  6
CONTINUOUS
 62
    7
 10
256.25706853093328
 20
180.72483784443625
 11
257.4881558804899
 21
177.98906893343539
  0
LINE
  8
_1-1_
  6
CONTINUOUS
 62
    7
 10
257.4881558804899
 20
177.98906893343539
 11
253.11094541807435
 21
176.01931185335727
  0
LINE
  8
_1-1_
  6
CONTINUOUS
 62
    7
 10
251.8798333245355
 20
178.75508076435813
 11
257.4881558804899
 21
177.98906893343539
  0
LINE
  8
_1-1_
  6
CONTINUOUS
 62
    7
 10
251.8798333245355
 20
178.75508076435813
 11
256.25706853093328
 21
180.72483784443625
  0
LINE
  8
_1-1_
  6
CONTINUOUS
 62
    7
 10
256.25706853093328
 20
180.72483784443625
 11
257.4881558804899
 21
177.98906893343539
  0
LINE
  8
_1-1_
  6
CONTINUOUS
 62
    7
 10
251.8798333245355
 20
178.75508076435813
 11
257.4881558804899
 21
177.98906893343539
  0
LINE
  8
_1-1_
  6
CONTINUOUS
 62
    7
 10
251.87985806851776
 20
178.75508076435813
 11
256.25706853093328
 21
180.72483784443625
  0
LINE
  8
_1-1_
  6
CONTINUOUS
 62
    7
 10
256.25706853093328
 20
180.72483784443625
 11
257.48818062447214
 21
177.98906893343539
  0
LINE
  8
_1-1_
  6
CONTINUOUS
 62
    7
 10
251.87985806851776
 20
178.75508076435813
 11
257.48818062447214
 21
177.98906893343539
  0
LINE
  8
_1-1_
  6
CONTINUOUS
 62
    7
 10
251.87985806851776
 20
178.75509313634925
 11
256.25706853093328
 21
180.72485021642737
  0
LINE
  8
_1-c_
  6
CONTINUOUS
 62
    7
 10
112.30058824693835
 20
129.6955088022593
 11
114.78758116026184
 21
122.93866956556167
  0
LINE
  8
_1-c_
  6
CONTINUOUS
 62
    7
 10
155.16090186866555
 20
148.98265116923565
 11
157.64789478198904
 21
142.22581193253802
  0
LINE
  8
_1-c_
  6
CONTINUOUS
 62
    7
 10
198.02121549039273
 20
168.26979353621201
 11
200.50820840371622
 21
161.51295429951438
  0
LINE
  8
_1-c_
  6
CONTINUOUS
 62
    7
 10
156.10974698453336
 20
151.03683471679687
 11
198.60681894663219
 21
166.67878022065034
  0
LINE
  8
_1-c_
  6
CONTINUOUS
 62
    7
 10
113.24943336280617
 20
131.74969234982052
 11
155.746505324905
 21
147.39163785367398
  0
LINE
  8
_1-4_
  6
CONTINUOUS
 62
    7
 10
102.38769118850296
 20
149.81769871067357
 11
84.121683481577278
 21
190.40880357896961
  0
LINE
  8
_1-4_
  6
CONTINUOUS
 62
    7
 10
84.121683481577278
 20
190.40880357896961
 11
126.98199710330448
 21
209.69594594594597
  0
LINE
  8
_1-4_
  6
CONTINUOUS
 62
    7
 10
102.38767881651184
 20
149.81769871067357
 11
84.121683481577278
 21
190.40880357896961
  0
LINE
  8
_1-4_
  6
CONTINUOUS
 62
    7
 10
145.24799243823904
 20
169.10484107764992
 11
126.98199710330448
 21
209.69594594594597
  0
LINE
  8
_1-4_
  6
CONTINUOUS
 62
    7
 10
126.98199710330448
 20
209.69594594594597
 11
170.01866108662375
 21
229.06246700802367
  0
LINE
  8
_1-4_
  6
CONTINUOUS
 62
    7
 10
188.28465642155828
 20
188.47134976773648
 11
170.01866108662375
 21
229.06244226404141
  0
LINE
  8
_1-4_
  6
CONTINUOUS
 62
    7
 10
170.01866108662375
 20
229.06246700802367
 11
212.70263671875
 21
248.27023067989867
  0
LINE
  8
_1-4_
  6
CONTINUOUS
 62
    7
 10
230.96861968169341
 20
207.67913818359375
 11
212.70261197476773
 21
248.27025542388094
  0
LINE
  8
_1-4_
  6
CONTINUOUS
 62
    7
 10
212.70263671875
 20
248.27023067989867
 11
255.73875633445948
 21
267.63647955817146
  0
LINE
  8
_1-4_
  6
CONTINUOUS
 62
    7
 10
274.00476404138516
 20
227.04538706186656
 11
255.73875633445948
 21
267.63647955817146
  0
LINE
  8
_1-4_
  6
CONTINUOUS
 62
    7
 10
231.8918918918919
 20
180
 11
216.82015908730997
 21
206.10498789194469
  0
LINE
  8
_1-4_
  6
CONTINUOUS
 62
    7
 10
216.82015908730997
 20
206.10498789194469
 11
209.18918918918919
 21
206.10498789194469
  0
ARC
  8
_1-c_
  6
CONTINUOUS
 62
    7
 10
113.80210257865288
 20
130.24816564611487
 40
1.5999999239638045
 50
110.20722961425781
 51
200.20695495605469
  0
ARC
  8
_1-c_
  6
CONTINUOUS
 62
    7
 10
156.66241620038008
 20
149.53530801309122
 40
1.5999999239638045
 50
110.20722961425781
 51
200.20695495605469
  0
ARC
  8
_1-c_
  6
CONTINUOUS
 62
    7
 10
199.52272982210727
 20
168.82245038006758
 40
1.5999999239638045
 50
110.20722961425781
 51
200.20695495605469
  0
TEXT
  8
_0-0_
 62
    7
 10
141.89189395389042
 20
14.594594594594582
 40
2.5
 41
1
 50
0
  1
縮尺
  0
TEXT
  8
_0-0_
 62
    7
 10
377.10214563318203
 20
22.865493362014362
 40
2.5
 41
1
 50
0
  1
ＮＯ
  0
TEXT
  8
_0-0_
 62
    7
 10
14.594594336844779
 20
24.324324324324323
 40
2.5
 41
1
 50
0
  1
和形
  0
TEXT
  8
_0-0_
 62
    7
 10
383.23801896378802
 20
18.523427086907475
 40
3
 41
1
 50
0
  1
Ｊ
  0
TEXT
  8
_1-0_
 62
    7
 10
169.90681828679266
 20
13.3181144095756
 40
2.5
 41
1
 50
0
  1
1/5
  0
TEXT
  8
_1-4_
 62
    7
 10
103.6368061510034
 20
199.7388939810055
 40
2.5
 41
1
 50
24.227891841336795
  1
237
  0
TEXT
  8
_1-4_
 62
    7
 10
146.58529495352664
 20
219.06572569553254
 40
2.5
 41
1
 50
24.227891841336653
  1
237
  0
TEXT
  8
_1-4_
 62
    7
 10
189.44560857525383
 20
238.35289280649116
 40
2.5
 41
1
 50
24.227891841336675
  1
237
  0
TEXT
  8
_1-4_
 62
    7
 10
232.30565724090377
 20
257.63988439463378
 40
2.5
 41
1
 50
24.227969413213476
  1
237
  0
POINT
  8
_1-4_
 62
    7
 10
84.121695853568411
 20
190.40880357896961
  0
POINT
  8
_1-4_
 62
    7
 10
84.121683481577278
 20
190.40880357896961
  0
POINT
  8
_1-4_
 62
    7
 10
126.98199710330448
 20
209.69594594594597
  0
POINT
  8
_1-4_
 62
    7
 10
170.01866108662375
 20
229.06246700802367
  0
POINT
  8
_1-4_
 62
    7
 10
212.70263671875
 20
248.27023067989867
  0
POINT
  8
_1-4_
 62
    7
 10
255.73875633445948
 20
267.63647955817146
  0
POINT
  8
_1-a_
 62
    7
 10
84.121695853568411
 20
190.40880357896961
  0
LINE
  8
_1-c_
  6
CONTINUOUS
 62
    7
 10
198.97006060626057
 20
170.32397708377323
 11
254.66994492706931
 21
190.82550268390767
  0
LINE
  8
ADD_LINE
  6
DOT
 62
    4
 10
237.7183775892552
 20
187.5778261957833
 11
237.7183775892552
 21
164.00020862842646
  0
LINE
  8
ADD_LINE
  6
DOT
 62
    4
 10
241.97527482937519
 20
186.66874221136331
 11
292.0234688449051
 21
186.66874221136331
  0
LINE
  8
_1-b_
  6
CONTINUOUS
 62
    7
 10
124.53001692488388
 20
118.15789712441935
 11
123.29891720333615
 21
120.89366603542021
  0
LINE
  8
_1-b_
  6
CONTINUOUS
 62
    7
 10
123.29891720333615
 20
120.89366603542021
 11
127.67614003774284
 21
122.86342311549834
  0
LINE
  8
_1-b_
  6
CONTINUOUS
 62
    7
 10
127.67614003774284
 20
122.86342311549834
 11
128.90723975929055
 21
120.12765420449747
  0
LINE
  8
_1-b_
  6
CONTINUOUS
 62
    7
 10
128.90723975929055
 20
120.12765420449747
 11
124.53001692488388
 21
118.15789712441935
  0
LINE
  8
_1-b_
  6
CONTINUOUS
 62
    7
 10
123.29891720333615
 20
120.89366603542021
 11
128.90723975929055
 21
120.12765420449747
  0
LINE
  8
_1-b_
  6
CONTINUOUS
 62
    7
 10
123.29892957532729
 20
120.89367840741133
 11
127.67615240973396
 21
122.86343548748945
  0
LINE
  8
_1-b_
  6
CONTINUOUS
 62
    7
 10
126.90339784364443
 20
126.1194589975718
 11
127.07451485298776
 21
125.65458143079604
  0
LINE
  8
_1-b_
  6
CONTINUOUS
 62
    7
 10
128.40492454735008
 20
126.6721158414274
 11
130.2340368322424
 21
121.7026829075169
  0
LINE
  8
_1-b_
  6
CONTINUOUS
 62
    7
 10
128.544827023068
 20
121.08094086518162
 11
130.2340368322424
 21
121.7026829075169
  0
LINE
  8
_1-b_
  6
CONTINUOUS
 62
    7
 10
127.85398741026182
 20
122.95783377982477
 11
128.544827023068
 21
121.08094086518162
  0
LINE
  8
_1-b_
  6
CONTINUOUS
 62
    7
 10
115.02014984955659
 20
121.74556422877957
 11
170.71428865999789
 21
142.24496377480997
  0
LINE
  8
_1-b_
  6
CONTINUOUS
 62
    7
 10
171.40512827280406
 20
140.36807086016682
 11
173.09433808197846
 21
140.98981290250211
  0
LINE
  8
_1-b_
  6
CONTINUOUS
 62
    7
 10
170.71428865999789
 20
142.24496377480997
 11
171.40512827280406
 21
140.36807086016682
  0
LINE
  8
_1-b_
  6
CONTINUOUS
 62
    7
 10
115.73643864812078
 20
124.99285311312289
 11
169.93481610272383
 21
144.94171142578125
  0
LINE
  8
_1-b_
  6
CONTINUOUS
 62
    7
 10
114.78758116026184
 20
122.93865719357053
 11
115.20491316511826
 21
121.80481369430954
  0
LINE
  8
ADD_LINE
  6
DOT
 62
    7
 10
170.53644128747891
 20
142.15056548247466
 11
170.53644128747891
 21
142.60935602961359
  0
LINE
  8
ADD_LINE
  6
DOT
 62
    7
 10
170.53644128747891
 20
142.15056548247466
 11
170.53644128747891
 21
141.76752863703547
  0
LINE
  8
_1-b_
  6
CONTINUOUS
 62
    7
 10
157.8804634712838
 20
141.03270659575591
 11
213.57461465371622
 21
161.53210614178633
  0
LINE
  8
_1-b_
  6
CONTINUOUS
 62
    7
 10
214.26544189453125
 20
159.65521322714318
 11
215.95463933171453
 21
160.27695526947846
  0
LINE
  8
_1-b_
  6
CONTINUOUS
 62
    7
 10
213.57461465371622
 20
161.53210614178633
 11
214.26544189453125
 21
159.65521322714318
  0
LINE
  8
_1-b_
  6
CONTINUOUS
 62
    7
 10
158.59675226984797
 20
144.27999548009925
 11
212.79512972445102
 21
164.2288537927576
  0
LINE
  8
_1-b_
  6
CONTINUOUS
 62
    7
 10
157.64789478198904
 20
142.22579956054687
 11
158.06522678684544
 21
141.09195606128591
  0
LINE
  8
_1-b_
  6
CONTINUOUS
 62
    7
 10
200.74077709301099
 20
160.31984896273227
 11
256.43490353146115
 21
180.81924850876268
  0
LINE
  8
_1-b_
  6
CONTINUOUS
 62
    7
 10
257.12575551625844
 20
178.94235559411953
 11
258.81497769742401
 21
179.56409763645482
  0
LINE
  8
_1-b_
  6
CONTINUOUS
 62
    7
 10
256.43490353146115
 20
180.81924850876268
 11
257.12575551625844
 21
178.94235559411953
  0
LINE
  8
_1-b_
  6
CONTINUOUS
 62
    7
 10
201.45706589157518
 20
163.5671378470756
 11
255.65544334617823
 21
183.51599615973396
  0
LINE
  8
_1-b_
  6
CONTINUOUS
 62
    7
 10
200.50820840371622
 20
161.51294192752323
 11
200.92554040857266
 21
160.37909842826227
  0
LINE
  8
_1-b_
  6
CONTINUOUS
 62
    7
 10
257.12575551625844
 20
178.94235559411953
 11
258.81495295344172
 21
179.56409763645482
  0
LINE
  8
_1-b_
  6
CONTINUOUS
 62
    7
 10
256.43492827544344
 20
180.81924850876268
 11
257.12575551625844
 21
178.94235559411953
  0
LINE
  8
_1-b_
  6
CONTINUOUS
 62
    7
 10
255.48433870882602
 20
183.98086135451859
 11
255.65544334617823
 21
183.51599615973396
  0
LINE
  8
_1-b_
  6
CONTINUOUS
 62
    7
 10
256.98582829655828
 20
184.53354294235643
 11
258.81495295344172
 21
179.56409763645482
  0
LINE
  8
_1-b_
  6
CONTINUOUS
 62
    7
 10
255.48433870882602
 20
183.98086135451859
 11
255.65544334617823
 21
183.51599615973396
  0
LINE
  8
_1-b_
  6
CONTINUOUS
 62
    7
 10
212.62402508709883
 20
164.69373135953336
 11
212.79512972445102
 21
164.2288537927576
  0
LINE
  8
_1-b_
  6
CONTINUOUS
 62
    7
 10
214.12551467483109
 20
165.24638820338893
 11
215.95463933171453
 21
160.27695526947846
  0
LINE
  8
_1-b_
  6
CONTINUOUS
 62
    7
 10
169.7636990933805
 20
145.406588992557
 11
169.93481610272383
 21
144.94171142578125
  0
LINE
  8
_1-b_
  6
CONTINUOUS
 62
    7
 10
171.26522579708615
 20
145.95924583641261
 11
173.09433808197846
 21
140.98981290250211
  0
ARC
  8
_1-b_
  6
CONTINUOUS
 62
    7
 10
116.28909549197635
 20
123.49132640941724
 40
1.5999999239638045
 50
110.20680236816406
 51
200.20738220214844
  0
ARC
  8
_1-b_
  6
CONTINUOUS
 62
    7
 10
159.14940911370357
 20
142.77846877639359
 40
1.5999999239638045
 50
110.20680236816406
 51
200.20738220214844
  0
ARC
  8
_1-b_
  6
CONTINUOUS
 62
    7
 10
202.00972273543076
 20
162.06561114336995
 40
1.5999999239638045
 50
110.20680236816406
 51
200.20738220214844
  0
LINE
  8
_1-b_
  6
CONTINUOUS
 62
    7
 10
255.48433870882602
 20
183.98086135451859
 11
256.98582829655828
 21
184.53354294235643
  0
LINE
  8
_1-3_
  6
CONTINUOUS
 62
    7
 10
288.90575776651519
 20
164.41633331790334
 11
288.90575776651519
 21
182.81609858278333
  0
LINE
  8
_1-3_
  6
CONTINUOUS
 62
    7
 10
291.70575776651515
 20
163.8325927971633
 11
291.70575776651515
 21
182.81609858278333
  0
LINE
  8
_1-3_
  6
CONTINUOUS
 62
    7
 10
288.30575776651517
 20
164.16808743468331
 11
288.30575776651517
 21
182.81609858278333
  0
LINE
  8
_1-3_
  6
CONTINUOUS
 62
    7
 10
288.30575776651517
 20
164.16808743468331
 11
288.46177935501521
 21
164.13355291710332
  0
LINE
  8
_1-3_
  6
CONTINUOUS
 62
    7
 10
288.90575502829518
 20
164.41633331790334
 11
288.46177935501521
 21
164.13355291710332
  0
LINE
  8
_1-3_
  6
CONTINUOUS
 62
    7
 10
240.97687678835518
 20
186.79300902652329
 11
241.1330156551152
 21
187.44798817868332
  0
LINE
  8
_1-3_
  6
CONTINUOUS
 62
    7
 10
240.46026826101516
 20
187.2133518623433
 11
240.54937038825517
 21
187.58712193622333
  0
LINE
  8
_1-3_
  6
CONTINUOUS
 62
    7
 10
240.93120160157517
 20
186.79869534076329
 11
240.46026867095517
 21
187.2133517646233
  0
LINE
  8
_1-3_
  6
CONTINUOUS
 62
    7
 10
240.97687678835518
 20
186.79300902652329
 11
240.9312014286152
 21
186.79869406520331
  0
LINE
  8
_1-3_
  6
CONTINUOUS
 62
    7
 10
237.67021765109519
 20
187.58421920738331
 11
237.82566859859517
 21
188.2363126413033
  0
LINE
  8
_1-3_
  6
CONTINUOUS
 62
    7
 10
237.98807213381519
 20
187.16501419906331
 11
237.67021765109519
 21
187.58421920738331
  0
LINE
  8
_1-3_
  6
CONTINUOUS
 62
    7
 10
237.98807213381519
 20
187.16501419906331
 11
240.93119992089518
 21
186.7986942528633
  0
LINE
  8
_1-3_
  6
CONTINUOUS
 62
    7
 10
288.46177935501521
 20
164.13355291710332
 11
291.34859929607512
 21
163.49457125424331
  0
LINE
  8
_1-3_
  6
CONTINUOUS
 62
    7
 10
291.34859673633514
 20
163.49457182082332
 11
291.70575216433519
 21
163.83259397644332
  0
LINE
  8
_1-3_
  6
CONTINUOUS
 62
    7
 10
241.97527482937519
 20
186.66874221136331
 11
243.07619831895519
 21
186.97455429180332
  0
LINE
  8
_1-3_
  6
CONTINUOUS
 62
    7
 10
243.07619831895519
 20
186.97455429180332
 11
243.07849987793517
 21
186.9842089869033
  0
LINE
  8
_1-3_
  6
CONTINUOUS
 62
    7
 10
286.30575776651517
 20
164.92276524946331
 11
286.30575776651517
 21
182.81609858278333
  0
LINE
  8
_1-3_
  6
CONTINUOUS
 62
    7
 10
286.30575776651517
 20
164.92276524946331
 11
287.30575776651517
 21
164.38943191612333
  0
LINE
  8
_1-3_
  6
CONTINUOUS
 62
    7
 10
241.97527482937519
 20
186.66874221136331
 11
240.97687678835518
 21
186.79300902652329
  0
LINE
  8
_1-3_
  6
CONTINUOUS
 62
    7
 10
288.30575776651517
 20
164.16808743468331
 11
287.30575776651517
 21
164.38943191612333
  0
LINE
  8
_1-3_
  6
CONTINUOUS
 62
    7
 10
283.50575776651516
 20
182.81609858278333
 11
283.50575776651516
 21
166.41609858278332
  0
LINE
  8
_1-3_
  6
CONTINUOUS
 62
    7
 10
283.50575776651516
 20
166.41609858278332
 11
286.30575776651517
 21
164.92276524946331
  0
LINE
  8
_1-3_
  6
CONTINUOUS
 62
    7
 10
243.09596593561517
 20
186.9800452964233
 11
243.07849987793517
 21
186.9842089869033
  0
LINE
  8
_1-3_
  6
CONTINUOUS
 62
    7
 10
243.09596593561517
 20
186.9800452964233
 11
243.07619831895519
 21
186.97455429180332
  0
ARC
  8
_1-3_
  6
CONTINUOUS
 62
    7
 10
263.76494422367517
 20
181.58614207270332
 40
18.725897159975712
 50
93.30251234939999
 51
160.56774829860001
  0
ARC
  8
_1-3_
  6
CONTINUOUS
 62
    7
 10
263.90568202857514
 20
179.14567593420333
 40
21.170417991629758
 50
40.378985774100023
 51
93.302280107100017
  0
ARC
  8
_1-3_
  6
CONTINUOUS
 62
    7
 10
268.92705070211514
 20
183.41609858278332
 40
14.578707064398579
 50
0
 51
40.378753531800001
  0
LINE
  8
_1-3_
  6
CONTINUOUS
 62
    7
 10
283.50575776651516
 20
183.41609858278332
 11
283.50575776651516
 21
182.81609858278333
  0
LINE
  8
_1-3_
  6
CONTINUOUS
 62
    7
 10
243.09596593561517
 20
186.9800452964233
 11
246.10575776651518
 21
187.81609858278333
  0
LINE
  8
_1-3_
  6
CONTINUOUS
 62
    7
 10
237.82604248057518
 20
188.23632936806331
 11
238.27610796819519
 21
189.87495775890329
  0
LINE
  8
_1-3_
  6
CONTINUOUS
 62
    7
 10
238.27610796819519
 20
189.87495775890329
 11
238.80395713159518
 21
191.39558904946333
  0
LINE
  8
_1-3_
  6
CONTINUOUS
 62
    7
 10
238.80395713159518
 20
191.39558904946333
 11
239.39231434689518
 21
192.8002449378433
  0
LINE
  8
_1-3_
  6
CONTINUOUS
 62
    7
 10
239.39231434689518
 20
192.8002449378433
 11
240.02542958589518
 21
194.09179877926331
  0
LINE
  8
_1-3_
  6
CONTINUOUS
 62
    7
 10
240.02542958589518
 20
194.09179877926331
 11
240.91463917643517
 21
195.64419966452331
  0
LINE
  8
_1-3_
  6
CONTINUOUS
 62
    7
 10
240.91463917643517
 20
195.64419966452331
 11
241.82777685719518
 21
197.01192714816332
  0
LINE
  8
_1-3_
  6
CONTINUOUS
 62
    7
 10
241.82777685719518
 20
197.01192714816332
 11
242.73833773293518
 21
198.20618418566332
  0
LINE
  8
_1-3_
  6
CONTINUOUS
 62
    7
 10
242.73833773293518
 20
198.20618418566332
 11
243.80175177607518
 21
199.43399211108331
  0
LINE
  8
_1-3_
  6
CONTINUOUS
 62
    7
 10
243.80175177607518
 20
199.43399211108331
 11
244.90877585677518
 21
200.5583525928233
  0
LINE
  8
_1-3_
  6
CONTINUOUS
 62
    7
 10
244.90877585677518
 20
200.5583525928233
 11
246.08885393965519
 21
201.61468222644331
  0
LINE
  8
_1-3_
  6
CONTINUOUS
 62
    7
 10
246.08885393965519
 20
201.61468222644331
 11
247.34020787753516
 21
202.59889842494331
  0
LINE
  8
_1-3_
  6
CONTINUOUS
 62
    7
 10
247.34020787753516
 20
202.59889842494331
 11
248.65577288929518
 21
203.50705472518331
  0
LINE
  8
_1-3_
  6
CONTINUOUS
 62
    7
 10
248.65577288929518
 20
203.50705472518331
 11
250.36629658001519
 21
204.53084586574329
  0
LINE
  8
_1-3_
  6
CONTINUOUS
 62
    7
 10
250.36629658001519
 20
204.53084586574329
 11
252.11052118645517
 21
205.41458974278331
  0
LINE
  8
_1-3_
  6
CONTINUOUS
 62
    7
 10
252.11052118645517
 20
205.41458974278331
 11
253.83498866281516
 21
206.1450426850833
  0
LINE
  8
_1-3_
  6
CONTINUOUS
 62
    7
 10
253.83498866281516
 20
206.1450426850833
 11
255.52776203049518
 21
206.73478899420331
  0
LINE
  8
_1-3_
  6
CONTINUOUS
 62
    7
 10
255.52776203049518
 20
206.73478899420331
 11
257.71836755911522
 21
207.32407584936331
  0
LINE
  8
_1-3_
  6
CONTINUOUS
 62
    7
 10
257.71836755911522
 20
207.32407584936331
 11
259.82305851113517
 21
207.71644736654332
  0
LINE
  8
_1-3_
  6
CONTINUOUS
 62
    7
 10
259.82305851113517
 20
207.71644736654332
 11
261.9846025225952
 21
207.94885718854331
  0
LINE
  8
_1-3_
  6
CONTINUOUS
 62
    7
 10
261.9846025225952
 20
207.94885718854331
 11
264.25132153477517
 21
208.01238864384331
  0
LINE
  8
_1-3_
  6
CONTINUOUS
 62
    7
 10
264.25132153477517
 20
208.01238864384331
 11
266.59552904641521
 21
207.89596658728331
  0
LINE
  8
_1-3_
  6
CONTINUOUS
 62
    7
 10
266.59552904641521
 20
207.89596658728331
 11
268.99584704207518
 21
207.58705445292333
  0
LINE
  8
_1-3_
  6
CONTINUOUS
 62
    7
 10
268.99584704207518
 20
207.58705445292333
 11
270.45706270767516
 21
207.30267036700332
  0
LINE
  8
_1-3_
  6
CONTINUOUS
 62
    7
 10
270.45706270767516
 20
207.30267036700332
 11
271.93591547993515
 21
206.93813691464331
  0
LINE
  8
_1-3_
  6
CONTINUOUS
 62
    7
 10
271.93591547993515
 20
206.93813691464331
 11
273.5147872209352
 21
206.46050755142332
  0
LINE
  8
_1-3_
  6
CONTINUOUS
 62
    7
 10
273.5147872209352
 20
206.46050755142332
 11
275.21179605185517
 21
205.84012051880333
  0
LINE
  8
_1-3_
  6
CONTINUOUS
 62
    7
 10
275.21179605185517
 20
205.84012051880333
 11
277.01293290599517
 21
205.0521666663833
  0
LINE
  8
_1-3_
  6
CONTINUOUS
 62
    7
 10
277.01293290599517
 20
205.0521666663833
 11
278.58092156777514
 21
204.24865965474331
  0
LINE
  8
_1-3_
  6
CONTINUOUS
 62
    7
 10
278.58092156777514
 20
204.24865965474331
 11
280.19690470173521
 21
203.29477376538333
  0
LINE
  8
_1-3_
  6
CONTINUOUS
 62
    7
 10
280.19690470173521
 20
203.29477376538333
 11
281.84642783657523
 21
202.17416934076331
  0
LINE
  8
_1-3_
  6
CONTINUOUS
 62
    7
 10
281.84642783657523
 20
202.17416934076331
 11
283.08278688879523
 21
201.21195995764333
  0
LINE
  8
_1-3_
  6
CONTINUOUS
 62
    7
 10
283.08278688879523
 20
201.21195995764333
 11
284.28975903827518
 21
200.13595460630333
  0
LINE
  8
_1-3_
  6
CONTINUOUS
 62
    7
 10
284.28975903827518
 20
200.13595460630333
 11
285.45631479249516
 21
198.94264964778333
  0
LINE
  8
_1-3_
  6
CONTINUOUS
 62
    7
 10
285.45631479249516
 20
198.94264964778333
 11
286.56988509209521
 21
197.62919199538331
  0
LINE
  8
_1-3_
  6
CONTINUOUS
 62
    7
 10
286.56988509209521
 20
197.62919199538331
 11
287.61682777605517
 21
196.19364260744331
  0
LINE
  8
_1-3_
  6
CONTINUOUS
 62
    7
 10
287.61682777605517
 20
196.19364260744331
 11
288.58253166135512
 21
194.63513270072332
  0
LINE
  8
_1-3_
  6
CONTINUOUS
 62
    7
 10
288.58253166135512
 20
194.63513270072332
 11
289.45128358547515
 21
192.95396315842333
  0
LINE
  8
_1-3_
  6
CONTINUOUS
 62
    7
 10
289.45128358547515
 20
192.95396315842333
 11
290.2062018433752
 21
191.15172408360331
  0
LINE
  8
_1-3_
  6
CONTINUOUS
 62
    7
 10
290.2062018433752
 20
191.15172408360331
 11
290.82917279201513
 21
189.23141959792332
  0
LINE
  8
_1-3_
  6
CONTINUOUS
 62
    7
 10
290.82917279201513
 20
189.23141959792332
 11
291.30078541985517
 21
187.19759666198331
  0
LINE
  8
_1-3_
  6
CONTINUOUS
 62
    7
 10
291.30078541985517
 20
187.19759666198331
 11
291.60026388055519
 21
185.05647792132331
  0
LINE
  8
_1-3_
  6
CONTINUOUS
 62
    7
 10
291.60026388055519
 20
185.05647792132331
 11
291.70539799195512
 21
182.81609858278333
  0
LINE
  8
_1-3_
  6
CONTINUOUS
 62
    7
 10
291.70575776651515
 20
163.83259340986331
 11
291.65708839761521
 21
163.84274033794333
  0
LINE
  8
_1-3_
  6
CONTINUOUS
 62
    7
 10
291.65708839761521
 20
163.84274033794333
 11
291.51205569915521
 21
163.8729760234433
  0
LINE
  8
_1-3_
  6
CONTINUOUS
 62
    7
 10
291.51205569915521
 20
163.8729760234433
 11
291.27356617859516
 21
163.92269547316329
  0
LINE
  8
_1-3_
  6
CONTINUOUS
 62
    7
 10
291.27356617859516
 20
163.92269547316329
 11
290.94639929015523
 21
163.99090244968332
  0
LINE
  8
_1-3_
  6
CONTINUOUS
 62
    7
 10
290.94639929015523
 20
163.99090244968332
 11
290.53711153445522
 21
164.07623014478332
  0
LINE
  8
_1-3_
  6
CONTINUOUS
 62
    7
 10
290.53711153445522
 20
164.07623014478332
 11
290.05390509119513
 21
164.17696838404333
  0
LINE
  8
_1-3_
  6
CONTINUOUS
 62
    7
 10
290.05390509119513
 20
164.17696838404333
 11
289.50646360835515
 21
164.29109815276331
  0
LINE
  8
_1-3_
  6
CONTINUOUS
 62
    7
 10
289.50646360835515
 20
164.29109815276331
 11
288.9057578090152
 21
164.4163318738633
  0
LINE
  8
_1-3_
  6
CONTINUOUS
 62
    7
 10
241.13301565511517
 20
187.44798817868332
 11
241.64864890067517
 21
189.2359987490033
  0
LINE
  8
_1-3_
  6
CONTINUOUS
 62
    7
 10
241.64864890067517
 20
189.2359987490033
 11
242.3244240376952
 21
190.95752043320331
  0
LINE
  8
_1-3_
  6
CONTINUOUS
 62
    7
 10
242.3244240376952
 20
190.95752043320331
 11
243.15375847109519
 21
192.6025309578433
  0
LINE
  8
_1-3_
  6
CONTINUOUS
 62
    7
 10
243.15375847109519
 20
192.6025309578433
 11
244.13006960587518
 21
194.16100804950332
  0
LINE
  8
_1-3_
  6
CONTINUOUS
 62
    7
 10
244.13006960587518
 20
194.16100804950332
 11
245.24677484699518
 21
195.62292943472329
  0
LINE
  8
_1-3_
  6
CONTINUOUS
 62
    7
 10
245.24677484699518
 20
195.62292943472329
 11
246.47382567107519
 21
196.95506294368332
  0
LINE
  8
_1-3_
  6
CONTINUOUS
 62
    7
 10
246.47382567107519
 20
196.95506294368332
 11
247.82371547775517
 21
198.17489594738331
  0
LINE
  8
_1-3_
  6
CONTINUOUS
 62
    7
 10
247.82371547775517
 20
198.17489594738331
 11
249.28832305077518
 21
199.27367443898331
  0
LINE
  8
_1-3_
  6
CONTINUOUS
 62
    7
 10
249.28832305077518
 20
199.27367443898331
 11
250.83034791979517
 21
200.25585523264331
  0
LINE
  8
_1-3_
  6
CONTINUOUS
 62
    7
 10
250.83034791979517
 20
200.25585523264331
 11
252.92059925089518
 21
201.35961326348331
  0
LINE
  8
_1-3_
  6
CONTINUOUS
 62
    7
 10
252.92059925089518
 20
201.35961326348331
 11
255.09676752885517
 21
202.26503277532331
  0
LINE
  8
_1-3_
  6
CONTINUOUS
 62
    7
 10
255.09676752885517
 20
202.26503277532331
 11
257.34460012233518
 21
202.96756525296331
  0
LINE
  8
_1-3_
  6
CONTINUOUS
 62
    7
 10
257.34460012233518
 20
202.96756525296331
 11
259.64955981763518
 21
203.4628112358433
  0
LINE
  8
_1-3_
  6
CONTINUOUS
 62
    7
 10
259.64955981763518
 20
203.4628112358433
 11
261.99809383525519
 21
203.74585148572331
  0
LINE
  8
_1-3_
  6
CONTINUOUS
 62
    7
 10
261.99809383525519
 20
203.74585148572331
 11
264.37571386001514
 21
203.81219471586331
  0
LINE
  8
_1-3_
  6
CONTINUOUS
 62
    7
 10
264.37571386001514
 20
203.81219471586331
 11
266.74431508129521
 21
203.67041207124331
  0
LINE
  8
_1-3_
  6
CONTINUOUS
 62
    7
 10
266.74431508129521
 20
203.67041207124331
 11
268.79097020311519
 21
203.38152480376331
  0
LINE
  8
_1-3_
  6
CONTINUOUS
 62
    7
 10
268.79097020311519
 20
203.38152480376331
 11
270.80483149391523
 21
202.94179854782331
  0
LINE
  8
_1-3_
  6
CONTINUOUS
 62
    7
 10
270.80483149391523
 20
202.94179854782331
 11
272.77765606477521
 21
202.35409351152333
  0
LINE
  8
_1-3_
  6
CONTINUOUS
 62
    7
 10
272.77765606477521
 20
202.35409351152333
 11
274.70120102673513
 21
201.6212699030433
  0
LINE
  8
_1-3_
  6
CONTINUOUS
 62
    7
 10
274.70120102673513
 20
201.6212699030433
 11
276.56722349085521
 21
200.74618793052332
  0
LINE
  8
_1-3_
  6
CONTINUOUS
 62
    7
 10
276.56722349085521
 20
200.74618793052332
 11
278.36748056821523
 21
199.73170780212331
  0
LINE
  8
_1-3_
  6
CONTINUOUS
 62
    7
 10
278.36748056821523
 20
199.73170780212331
 11
280.09528653181519
 21
198.5812208666033
  0
LINE
  8
_1-3_
  6
CONTINUOUS
 62
    7
 10
280.09528653181519
 20
198.5812208666033
 11
281.72979355223515
 21
197.29301470044334
  0
LINE
  8
_1-3_
  6
CONTINUOUS
 62
    7
 10
281.72979355223515
 20
197.29301470044334
 11
283.06199903797517
 21
196.01100011974333
  0
LINE
  8
_1-3_
  6
CONTINUOUS
 62
    7
 10
283.06199903797517
 20
196.01100011974333
 11
284.25690141743519
 21
194.61717986000332
  0
LINE
  8
_1-3_
  6
CONTINUOUS
 62
    7
 10
284.25690141743519
 20
194.61717986000332
 11
285.30877032333512
 21
193.12289428954332
  0
LINE
  8
_1-3_
  6
CONTINUOUS
 62
    7
 10
285.30877032333512
 20
193.12289428954332
 11
286.21205230183523
 21
191.53948404242331
  0
LINE
  8
_1-3_
  6
CONTINUOUS
 62
    7
 10
286.21205230183523
 20
191.53948404242331
 11
286.96119409895516
 21
189.87828975302332
  0
LINE
  8
_1-3_
  6
CONTINUOUS
 62
    7
 10
286.96119409895516
 20
189.87828975302332
 11
287.54154914497519
 21
188.18201967348332
  0
LINE
  8
_1-3_
  6
CONTINUOUS
 62
    7
 10
287.54154914497519
 20
188.18201967348332
 11
287.96260213091523
 21
186.43240186220331
  0
LINE
  8
_1-3_
  6
CONTINUOUS
 62
    7
 10
287.96260213091523
 20
186.43240186220331
 11
288.21909201777521
 21
184.64018020376332
  0
LINE
  8
_1-3_
  6
CONTINUOUS
 62
    7
 10
288.21909201777521
 20
184.64018020376332
 11
288.30575776651517
 21
182.81609858278333
  0
LINE
  8
_1-3_
  6
CONTINUOUS
 62
    7
 10
240.54937038825517
 20
187.58712193622333
 11
241.09027409547517
 21
189.39918459542329
  0
LINE
  8
_1-3_
  6
CONTINUOUS
 62
    7
 10
241.09027409547517
 20
189.39918459542329
 11
241.79254056145518
 21
191.1443135886833
  0
LINE
  8
_1-3_
  6
CONTINUOUS
 62
    7
 10
241.79254056145518
 20
191.1443135886833
 11
242.64955521281519
 21
192.81250200134332
  0
LINE
  8
_1-3_
  6
CONTINUOUS
 62
    7
 10
242.64955521281519
 20
192.81250200134332
 11
243.65470347613515
 21
194.39374291880333
  0
LINE
  8
_1-3_
  6
CONTINUOUS
 62
    7
 10
243.65470347613515
 20
194.39374291880333
 11
244.80137077799517
 21
195.87802942642332
  0
LINE
  8
_1-3_
  6
CONTINUOUS
 62
    7
 10
244.80137077799517
 20
195.87802942642332
 11
246.05891266381516
 21
197.2317554540233
  0
LINE
  8
_1-3_
  6
CONTINUOUS
 62
    7
 10
246.05891266381516
 20
197.2317554540233
 11
247.44031750483518
 21
198.47282575102332
  0
LINE
  8
_1-3_
  6
CONTINUOUS
 62
    7
 10
247.44031750483518
 20
198.47282575102332
 11
248.93763316073517
 21
199.59243221016331
  0
LINE
  8
_1-3_
  6
CONTINUOUS
 62
    7
 10
248.93763316073517
 20
199.59243221016331
 11
250.51594863887519
 21
200.59380052688331
  0
LINE
  8
_1-3_
  6
CONTINUOUS
 62
    7
 10
250.51594863887519
 20
200.59380052688331
 11
252.65636296089517
 21
201.71885257044329
  0
LINE
  8
_1-3_
  6
CONTINUOUS
 62
    7
 10
252.65636296089517
 20
201.71885257044329
 11
254.88490317625516
 21
202.64127855558331
  0
LINE
  8
_1-3_
  6
CONTINUOUS
 62
    7
 10
254.88490317625516
 20
202.64127855558331
 11
257.18693021431517
 21
203.35643506038332
  0
LINE
  8
_1-3_
  6
CONTINUOUS
 62
    7
 10
257.18693021431517
 20
203.35643506038332
 11
259.54748504591521
 21
203.85982205728331
  0
LINE
  8
_1-3_
  6
CONTINUOUS
 62
    7
 10
259.54748504591521
 20
203.85982205728331
 11
261.95250472787518
 21
204.14638794154331
  0
LINE
  8
_1-3_
  6
CONTINUOUS
 62
    7
 10
261.95250472787518
 20
204.14638794154331
 11
264.3869850578152
 21
204.21156001432331
  0
LINE
  8
_1-3_
  6
CONTINUOUS
 62
    7
 10
264.3869850578152
 20
204.21156001432331
 11
266.81196248055517
 21
204.06430753264331
  0
LINE
  8
_1-3_
  6
CONTINUOUS
 62
    7
 10
266.81196248055517
 20
204.06430753264331
 11
268.90713206525515
 21
203.76730161984332
  0
LINE
  8
_1-3_
  6
CONTINUOUS
 62
    7
 10
268.90713206525515
 20
203.76730161984332
 11
270.96851923841518
 21
203.31640559346332
  0
LINE
  8
_1-3_
  6
CONTINUOUS
 62
    7
 10
270.96851923841518
 20
203.31640559346332
 11
272.98766351179518
 21
202.71453604564331
  0
LINE
  8
_1-3_
  6
CONTINUOUS
 62
    7
 10
272.98766351179518
 20
202.71453604564331
 11
274.95610439719519
 21
201.96460956852331
  0
LINE
  8
_1-3_
  6
CONTINUOUS
 62
    7
 10
274.95610439719519
 20
201.96460956852331
 11
276.86538140641517
 21
201.06954275426332
  0
LINE
  8
_1-3_
  6
CONTINUOUS
 62
    7
 10
276.86538140641517
 20
201.06954275426332
 11
278.70703405121515
 21
200.03225219498333
  0
LINE
  8
_1-3_
  6
CONTINUOUS
 62
    7
 10
278.70703405121515
 20
200.03225219498333
 11
280.4735472997952
 21
198.85604888304331
  0
LINE
  8
_1-3_
  6
CONTINUOUS
 62
    7
 10
280.4735472997952
 20
198.85604888304331
 11
282.1404516616152
 21
197.53914818052331
  0
LINE
  8
_1-3_
  6
CONTINUOUS
 62
    7
 10
282.1404516616152
 20
197.53914818052331
 11
283.49958878577513
 21
196.23079955970331
  0
LINE
  8
_1-3_
  6
CONTINUOUS
 62
    7
 10
283.49958878577513
 20
196.23079955970331
 11
284.72000660023514
 21
194.81031645894333
  0
LINE
  8
_1-3_
  6
CONTINUOUS
 62
    7
 10
284.72000660023514
 20
194.81031645894333
 11
285.79596880483518
 21
193.28904590982333
  0
LINE
  8
_1-3_
  6
CONTINUOUS
 62
    7
 10
285.79596880483518
 20
193.28904590982333
 11
286.72190667749521
 21
191.67833677862333
  0
LINE
  8
_1-3_
  6
CONTINUOUS
 62
    7
 10
286.72190667749521
 20
191.67833677862333
 11
287.49225168545513
 21
189.98953793364331
  0
LINE
  8
_1-3_
  6
CONTINUOUS
 62
    7
 10
287.49225168545513
 20
189.98953793364331
 11
288.09200252633514
 21
188.2658666715233
  0
LINE
  8
_1-3_
  6
CONTINUOUS
 62
    7
 10
288.09200252633514
 20
188.2658666715233
 11
288.53102082935516
 21
186.48856856880334
  0
LINE
  8
_1-3_
  6
CONTINUOUS
 62
    7
 10
288.53102082935516
 20
186.48856856880334
 11
288.80403108069515
 21
184.66839531078332
  0
LINE
  8
_1-3_
  6
CONTINUOUS
 62
    7
 10
288.80403108069515
 20
184.66839531078332
 11
288.90575776651519
 21
182.81609858278333
  0
LINE
  8
_1-3_
  6
CONTINUOUS
 62
    7
 10
240.46026821385519
 20
187.2133516722233
 11
239.86169710515517
 21
187.29291691126332
  0
LINE
  8
_1-3_
  6
CONTINUOUS
 62
    7
 10
239.86169710515517
 20
187.29291691126332
 11
239.31620087499519
 21
187.3654272423833
  0
LINE
  8
_1-3_
  6
CONTINUOUS
 62
    7
 10
239.31620087499519
 20
187.3654272423833
 11
238.83471144969519
 21
187.4294294481833
  0
LINE
  8
_1-3_
  6
CONTINUOUS
 62
    7
 10
238.83471144969519
 20
187.4294294481833
 11
238.42687799455518
 21
187.48364081722332
  0
LINE
  8
_1-3_
  6
CONTINUOUS
 62
    7
 10
238.42687799455518
 20
187.48364081722332
 11
238.09783377143518
 21
187.52738868018329
  0
LINE
  8
_1-3_
  6
CONTINUOUS
 62
    7
 10
238.09783377143518
 20
187.52738868018329
 11
237.86323145661518
 21
187.55856325366329
  0
LINE
  8
_1-3_
  6
CONTINUOUS
 62
    7
 10
237.86323145661518
 20
187.55856325366329
 11
237.7183775892552
 21
187.5778261957833
  0
LINE
  8
_1-3_
  6
CONTINUOUS
 62
    7
 10
237.7183775892552
 20
187.5778261957833
 11
237.67021765109519
 21
187.58421920738331
  0
LINE
  8
_1-3_
  6
CONTINUOUS
 62
    7
 10
243.07849987793517
 20
186.9842089869033
 11
243.61523761319518
 21
188.80843021832331
  0
LINE
  8
_1-3_
  6
CONTINUOUS
 62
    7
 10
243.61523761319518
 20
188.80843021832331
 11
244.33390963481517
 21
190.55603674798331
  0
LINE
  8
_1-3_
  6
CONTINUOUS
 62
    7
 10
244.33390963481517
 20
190.55603674798331
 11
245.22616297119518
 21
192.21422590060331
  0
LINE
  8
_1-3_
  6
CONTINUOUS
 62
    7
 10
245.22616297119518
 20
192.21422590060331
 11
246.28364465077519
 21
193.7701950009633
  0
LINE
  8
_1-3_
  6
CONTINUOUS
 62
    7
 10
246.28364465077519
 20
193.7701950009633
 11
247.49800170199518
 21
195.21114137380331
  0
LINE
  8
_1-3_
  6
CONTINUOUS
 62
    7
 10
247.49800170199518
 20
195.21114137380331
 11
248.86088115325518
 21
196.52426234390333
  0
LINE
  8
_1-3_
  6
CONTINUOUS
 62
    7
 10
248.86088115325518
 20
196.52426234390333
 11
250.36170986619518
 21
197.6976094401233
  0
LINE
  8
_1-3_
  6
CONTINUOUS
 62
    7
 10
250.36170986619518
 20
197.6976094401233
 11
251.95661763021516
 21
198.73366431518332
  0
LINE
  8
_1-3_
  6
CONTINUOUS
 62
    7
 10
251.95661763021516
 20
198.73366431518332
 11
253.86485816183517
 21
199.75097871464331
  0
LINE
  8
_1-3_
  6
CONTINUOUS
 62
    7
 10
253.86485816183517
 20
199.75097871464331
 11
255.85238430581518
 21
200.58599321528331
  0
LINE
  8
_1-3_
  6
CONTINUOUS
 62
    7
 10
255.85238430581518
 20
200.58599321528331
 11
257.90677612227518
 21
201.23407996012332
  0
LINE
  8
_1-3_
  6
CONTINUOUS
 62
    7
 10
257.90677612227518
 20
201.23407996012332
 11
260.01557189591517
 21
201.69062636294331
  0
LINE
  8
_1-3_
  6
CONTINUOUS
 62
    7
 10
260.01557189591517
 20
201.69062636294331
 11
262.16536527683519
 21
201.95136222980332
  0
LINE
  8
_1-3_
  6
CONTINUOUS
 62
    7
 10
262.16536527683519
 20
201.95136222980332
 11
264.34182561717518
 21
202.0123533700833
  0
LINE
  8
_1-3_
  6
CONTINUOUS
 62
    7
 10
264.34182561717518
 20
202.0123533700833
 11
266.51008846145521
 21
201.88196967602329
  0
LINE
  8
_1-3_
  6
CONTINUOUS
 62
    7
 10
266.51008846145521
 20
201.88196967602329
 11
268.64830250053512
 21
201.56776623126333
  0
LINE
  8
_1-3_
  6
CONTINUOUS
 62
    7
 10
268.64830250053512
 20
201.56776623126333
 11
270.74521168461513
 21
201.0737862118433
  0
LINE
  8
_1-3_
  6
CONTINUOUS
 62
    7
 10
270.74521168461513
 20
201.0737862118433
 11
272.78957478321513
 21
200.40406783778332
  0
LINE
  8
_1-3_
  6
CONTINUOUS
 62
    7
 10
272.78957478321513
 20
200.40406783778332
 11
274.77015056573521
 21
199.56264932904332
  0
LINE
  8
_1-3_
  6
CONTINUOUS
 62
    7
 10
274.77015056573521
 20
199.56264932904332
 11
276.67570078483516
 21
198.55356976290332
  0
LINE
  8
_1-3_
  6
CONTINUOUS
 62
    7
 10
276.67570078483516
 20
198.55356976290332
 11
278.49573309895516
 21
197.38108256682332
  0
LINE
  8
_1-3_
  6
CONTINUOUS
 62
    7
 10
278.49573309895516
 20
197.38108256682332
 11
280.21832961953521
 21
196.04884006260332
  0
LINE
  8
_1-3_
  6
CONTINUOUS
 62
    7
 10
280.21832961953521
 20
196.04884006260332
 11
281.58768433065518
 21
194.74009256980332
  0
LINE
  8
_1-3_
  6
CONTINUOUS
 62
    7
 10
281.58768433065518
 20
194.74009256980332
 11
282.79720074313519
 21
193.30297649536331
  0
LINE
  8
_1-3_
  6
CONTINUOUS
 62
    7
 10
282.79720074313519
 20
193.30297649536331
 11
283.83997786979512
 21
191.75239928274331
  0
LINE
  8
_1-3_
  6
CONTINUOUS
 62
    7
 10
283.83997786979512
 20
191.75239928274331
 11
284.7089173131352
 21
190.10315049882331
  0
LINE
  8
_1-3_
  6
CONTINUOUS
 62
    7
 10
284.7089173131352
 20
190.10315049882331
 11
285.3969920788752
 21
188.37006310398331
  0
LINE
  8
_1-3_
  6
CONTINUOUS
 62
    7
 10
285.3969920788752
 20
188.37006310398331
 11
285.89717517271515
 21
186.56797005858331
  0
LINE
  8
_1-3_
  6
CONTINUOUS
 62
    7
 10
285.89717517271515
 20
186.56797005858331
 11
286.20243960031519
 21
184.71170432298334
  0
LINE
  8
_1-3_
  6
CONTINUOUS
 62
    7
 10
286.20243960031519
 20
184.71170432298334
 11
286.30575776651517
 21
182.81609858278333
  0
LINE
  8
_1-b_
  6
CONTINUOUS
 62
    7
 10
97.836938435940098
 20
111.90942737189549
 11
127.85398741026182
 21
122.95783377982477
  0
LINE
  8
_1-b_
  6
CONTINUOUS
 62
    7
 10
97.836938435940098
 20
114.89307180655234
 11
126.88682225031592
 21
125.58549272903922
  0
LINE
  8
_1-c_
  6
CONTINUOUS
 62
    7
 10
112.71569329339106
 20
128.56772757865289
 11
97.836938435940098
 21
123.79667840521056
  0
LINE
  8
_1-6_
  6
CONTINUOUS
 62
    7
 10
261.17658429788275
 20
194.01566570747849
 11
261.17658429788275
 21
200.01566075868206
  0
LINE
  8
_1-6_
  6
CONTINUOUS
 62
    7
 10
261.17658429788275
 20
200.01566075868206
 11
267.1765793490863
 21
200.01566075868206
  0
LINE
  8
_1-6_
  6
CONTINUOUS
 62
    7
 10
267.1765793490863
 20
200.01566075868206
 11
267.1765793490863
 21
194.01566570747849
  0
LINE
  8
_1-6_
  6
CONTINUOUS
 62
    7
 10
267.1765793490863
 20
194.01566570747849
 11
261.17658429788275
 21
194.01566570747849
  0
LINE
  8
_1-6_
  6
CONTINUOUS
 62
    7
 10
261.17658429788275
 20
200.01566075868206
 11
267.1765793490863
 21
194.01566570747849
  0
LINE
  8
_1-6_
  6
CONTINUOUS
 62
    7
 10
267.1765793490863
 20
200.01566075868206
 11
261.17658429788275
 21
194.01566570747849
  0
LINE
  8
_1-6_
  6
DASHED1
 62
    7
 10
260.57657984396593
 20
196.61566438779946
 11
267.77658380300306
 21
196.61566438779946
  0
LINE
  8
_1-6_
  6
DASHED1
 62
    7
 10
260.57657984396593
 20
197.41566207836109
 11
267.77658380300306
 21
197.41566207836109
  0
LINE
  8
_1-6_
  6
DASHED1
 62
    7
 10
263.66824145186285
 20
197.52399123271076
 11
264.17658182348453
 21
196.11566273820063
  0
LINE
  8
_1-6_
  6
DASHED1
 62
    7
 10
264.17658182348453
 20
196.11566273820063
 11
264.67658347308333
 21
197.51565251068797
  0
LINE
  8
_1-6_
  6
DASHED1
 62
    7
 10
264.67658347308333
 20
203.96665612660854
 11
264.67658347308333
 21
197.51565251068797
  0
LINE
  8
_1-6_
  6
DASHED1
 62
    7
 10
263.67658017388567
 20
203.96665612660854
 11
263.67658017388567
 21
197.52399123271076
  0
LINE
  8
_1-6_
  6
DASHED1
 62
    7
 10
263.67658017388567
 20
197.52399123271076
 11
264.68492219510614
 21
197.52399123271076
  0
LINE
  8
_1-6_
  6
CONTINUOUS
 62
    7
 10
264.04974417040171
 20
204.91494450287547
 11
264.31623685937979
 21
204.91494450287547
  0
LINE
  8
_1-6_
  6
CONTINUOUS
 62
    7
 10
263.17657852428687
 20
204.38193438093708
 11
265.17658512268213
 21
204.38193438093708
  0
LINE
  8
_1-6_
  6
CONTINUOUS
 62
    7
 10
263.17657852428687
 20
203.9337961181626
 11
263.17657852428687
 21
204.38193438093708
  0
LINE
  8
_1-6_
  6
CONTINUOUS
 62
    7
 10
265.17658512268213
 20
203.9337961181626
 11
265.17658512268213
 21
204.38193438093708
  0
ARC
  8
_1-6_
  6
CONTINUOUS
 62
    7
 10
264.17658182348453
 20
203.72864376121584
 40
1.1944762113932017
 50
33.155624389648445
 51
146.84437561035156
  0
LINE
  8
ADD_LINE
  6
DOT
 62
    4
 10
264.71206767788522
 20
212.11569649422248
 11
264.71206767788522
 21
188.08438965222871
  0
TEXT
  8
_1-4_
 62
    7
 10
39.721904445338907
 20
15.395235628695104
 40
2.5
 41
1
 50
0
  1
片流れ　　1
  0
LINE
  8
_1-8_
  6
CONTINUOUS
 62
    7
 10
289.31780366056574
 20
189.73128119800333
 11
298.63840817814616
 21
224.51625081486958
  0
LINE
  8
_1-8_
  6
CONTINUOUS
 62
    7
 10
298.63840817814616
 20
224.51625081486958
 11
303.29450915141433
 21
224.51625081486958
  0
LINE
  8
_1-8_
  6
CONTINUOUS
 62
    7
 10
264.48185316139768
 20
204.78899750415974
 11
275.80624631150573
 21
247.05220810524796
  0
LINE
  8
_1-8_
  6
CONTINUOUS
 62
    7
 10
265.25985336938436
 20
197.78699563227954
 11
275.69922115269617
 21
236.74724659849687
  0
LINE
  8
_1-8_
  6
CONTINUOUS
 62
    7
 10
275.80624631150573
 20
247.05220810524796
 11
283.80624631150573
 21
247.05220810524796
  0
LINE
  8
_1-8_
  6
CONTINUOUS
 62
    7
 10
275.69922115269617
 20
236.74724659849687
 11
283.69922115269617
 21
236.74724659849687
  0
LINE
  8
_1-8_
  6
CONTINUOUS
 62
    7
 10
277.15717486771473
 20
229.67553542575257
 11
285.15717486771473
 21
229.67553542575257
  0
TEXT
  8
_1-b_
 62
    7
 10
285.06200603161398
 20
246.28780158069884
 40
2.5
 41
1
 50
0
  1
パッキン付きステンレスネジ
  0
TEXT
  8
_1-b_
 62
    7
 10
284.64161293677205
 20
235.14738456738769
 40
2.5
 41
1
 50
0
  1
棟補強芯材40ｘ40
  0
TEXT
  8
_1-b_
 62
    7
 10
285.4823991264559
 20
228.4210950499168
 40
2.5
 41
1
 50
0
  1
棟補強金具
  0
TEXT
  8
_1-8_
 62
    7
 10
305.04159733777038
 20
223.27537437603993
 40
2.5
 41
1
 50
0
  1
７寸片流れ　冠瓦
  0
LINE
  8
ADD_LINE
  6
DOT
 62
    4
 10
264.19432392588544
 20
213.14226289517472
 11
264.19432392588544
 21
139.06572379367719
  0
LINE
  8
_1-6_
  6
CONTINUOUS
 62
    7
 10
267.57657934908627
 20
193.61566570747848
 11
260.77658429788272
 21
193.61566570747848
  0
LINE
  8
_1-6_
  6
CONTINUOUS
 62
    7
 10
260.77658429788272
 20
198.59985958152834
 11
261.19521651652713
 21
198.59985958152834
  0
LINE
  8
_1-6_
  6
CONTINUOUS
 62
    7
 10
267.1765793490863
 20
198.59985958152834
 11
267.57657934908627
 21
198.59985958152834
  0
LINE
  8
_1-6_
  6
CONTINUOUS
 62
    7
 10
267.57657934908627
 20
198.59985958152834
 11
267.57657934908627
 21
193.60810757561617
  0
LINE
  8
_1-6_
  6
CONTINUOUS
 62
    7
 10
260.77658429788272
 20
193.60810757561617
 11
260.77658429788272
 21
198.59985958152834
  0
LINE
  8
_1-6_
  6
CONTINUOUS
 62
    7
 10
260.77658429788272
 20
197.41566207836109
 11
260.77658429788272
 21
196.61566438779946
  0
LINE
  8
_1-6_
  6
CONTINUOUS
 62
    7
 10
260.57657984396593
 20
197.41566207836109
 11
260.57657984396593
 21
196.61566438779946
  0
LINE
  8
_1-6_
  6
CONTINUOUS
 62
    7
 10
267.77658380300306
 20
197.41566207836109
 11
267.77658380300306
 21
196.61566438779946
  0
LINE
  8
_1-6_
  6
CONTINUOUS
 62
    7
 10
275.47959650582362
 20
185.42727635876841
 11
275.35648707535108
 21
185.70085279804766
  0
LINE
  8
_1-6_
  6
CONTINUOUS
 62
    7
 10
246.19432392588544
 20
172.57787588367503
 11
246.31743335635801
 21
172.30429944439578
  0
LINE
  8
_1-6_
  6
CONTINUOUS
 62
    7
 10
246.31743335635801
 20
172.30429944439578
 11
265.19432392588544
 21
180.79890246439109
  0
LINE
  8
_1-6_
  6
CONTINUOUS
 62
    7
 10
264.99432392588545
 20
181.36683592858432
 11
263.19432392588544
 21
181.36683592858432
  0
LINE
  8
_1-6_
  6
CONTINUOUS
 62
    7
 10
263.49432392588545
 20
181.36683592858432
 11
263.49432392588545
 21
180.0339022605279
  0
LINE
  8
_1-6_
  6
CONTINUOUS
 62
    7
 10
246.19432392588544
 20
172.57787588367503
 11
263.19432392588544
 21
180.22787792230716
  0
LINE
  8
_1-6_
  6
CONTINUOUS
 62
    7
 10
265.19432392588544
 20
181.12787816214623
 11
275.35648707535108
 21
185.70085279804766
  0
ARC
  8
_1-9_
  6
CONTINUOUS
 62
    7
 10
236.01746630442551
 20
189.14057029001088
 40
16.702701649012589
 50
333.97592715141752
 51
30.818132377298269
  0
ARC
  8
_1-9_
  6
CONTINUOUS
 62
    1
 10
236.01746630442551
 20
189.14057029001088
 40
16.702701649012589
 50
333.97592715141752
 51
30.818132377298269
  0
LINE
  8
_1-6_
  6
CONTINUOUS
 62
    7
 10
263.19432392588544
 20
193.61566570747848
 11
263.19432392588544
 21
180.22787792230716
  0
LINE
  8
_1-6_
  6
CONTINUOUS
 62
    7
 10
264.99432392588545
 20
193.61566570747848
 11
264.99432392588545
 21
180.7089024404072
  0
LINE
  8
_1-6_
  6
CONTINUOUS
 62
    7
 10
265.19432392588544
 20
193.61566570747848
 11
265.19432392588544
 21
181.12787816214623
  0
LINE
  8
_1-8_
  6
CONTINUOUS
 62
    7
 10
267.57657934908627
 20
193.92026618346452
 11
277.15717486771473
 21
229.67553542575257
  0
LINE
  8
_1-b_
  6
CONTINUOUS
 62
    7
 10
254.66994492706931
 20
190.82550268390767
 11
259.12379242135597
 21
178.72509638278862
  0
SOLID
  8
_1-9_
  6
CONTINUOUS
 62
   30
 10
251.02667744436221
 20
181.81228103993843
 11
255.65544334617823
 21
183.51599615973396
 12
255.48433870882602
 22
183.98086135451859
 13
255.48433870882602
 23
183.98086135451859
  0
SOLID
  8
_1-9_
  6
CONTINUOUS
 62
   30
 10
255.48433870882602
 20
183.98086135451859
 11
256.98582829655828
 21
184.53354294235643
 12
263.19432392588544
 22
193.61566570747848
 13
263.19432392588544
 23
193.61566570747848
  0
SOLID
  8
_1-9_
  6
CONTINUOUS
 62
   30
 10
255.48433870882602
 20
183.98086135451859
 11
263.19432392588544
 21
193.61566570747848
 12
260.77658429788272
 22
193.60810757561617
 13
260.77658429788272
 23
193.60810757561617
  0
SOLID
  8
_1-9_
  6
CONTINUOUS
 62
   30
 10
255.48433870882602
 20
183.98086135451859
 11
260.77658429788272
 21
193.60810757561617
 12
254.99255752668785
 22
189.93487684368711
 13
254.99255752668785
 23
189.93487684368711
  0
SOLID
  8
_1-9_
  6
CONTINUOUS
 62
   30
 10
255.48433870882602
 20
183.98086135451859
 11
254.99255752668785
 21
189.93487684368711
 12
251.02667744436221
 22
181.81228103993843
 13
251.02667744436221
 23
181.81228103993843
  0
SOLID
  8
_1-9_
  6
CONTINUOUS
 62
   30
 10
256.98582829655828
 20
184.53354294235643
 11
259.12379242135597
 21
178.72509638278865
 12
263.19432392588544
 22
193.61566570747848
 13
263.19432392588539
 23
180.5568358155173
  0
SOLID
  8
_1-9_
  6
CONTINUOUS
 62
   30
 10
265.19432392588544
 20
193.61566570747848
 11
265.19432392588544
 21
181.12787816214623
 12
275.35648707535108
 22
185.70085279804766
 13
275.35648707535108
 23
185.70085279804766
  0
SOLID
  8
_1-9_
  6
CONTINUOUS
 62
   30
 10
275.35648707535108
 20
185.70085279804766
 11
275.47959650582362
 21
185.42727635876841
 12
275.67959650582361
 22
185.51727638275233
 13
275.67959650582361
 23
185.51727638275233
  0
SOLID
  8
_1-9_
  6
CONTINUOUS
 62
   30
 10
275.35648707535108
 20
185.70085279804766
 11
275.67959650582361
 21
185.51727638275233
 12
275.67959650582361
 22
187.52101295440085
 13
275.67959650582361
 23
187.52101295440085
  0
SOLID
  8
_1-9_
  6
CONTINUOUS
 62
   30
 10
278.87959650582366
 20
187.52101295440085
 11
278.87959650582366
 21
194.11125254081526
 12
265.19432392588544
 22
193.61566570747848
 13
265.19432392588544
 23
193.61566570747848
  0
SOLID
  8
_1-9_
  6
CONTINUOUS
 62
   30
 10
265.19432392588544
 20
193.61566570747848
 11
275.35648707535108
 21
185.70085279804766
 12
275.67959650582361
 22
187.52101295440085
 13
275.67959650582361
 23
187.52101295440085
  0
SOLID
  8
_1-9_
  6
CONTINUOUS
 62
   30
 10
265.19432392588544
 20
193.61566570747848
 11
275.67959650582361
 21
187.52101295440085
 12
278.87959650582366
 22
187.52101295440085
 13
278.87959650582366
 23
187.52101295440085
  0
SOLID
  8
_1-9_
  6
CONTINUOUS
 62
   30
 10
250.36170986619518
 20
197.6976094401233
 11
254.99677539855884
 21
189.93755546486102
 12
260.77658429788272
 22
198.59985958152834
 13
260.77658429788272
 23
193.60810757561617
  0
SOLID
  8
_1-9_
  6
CONTINUOUS
 62
   30
 10
260.77658429788272
 20
198.59985958152834
 11
261.17658429788275
 21
198.59985958152834
 12
261.17658429788275
 22
200.01566075868206
 13
261.17658429788275
 23
200.01566075868206
  0
SOLID
  8
_1-9_
  6
CONTINUOUS
 62
   30
 10
260.77658429788272
 20
198.59985958152834
 11
261.17658429788275
 21
200.01566075868206
 12
250.36170986619553
 22
197.69760944012273
 13
250.36170986619553
 23
197.69760944012273
  0
SOLID
  8
_1-9_
  6
CONTINUOUS
 62
   30
 10
250.36170986619518
 20
197.6976094401233
 11
261.17658429788275
 21
200.01566075868206
 12
263.67658017388567
 22
201.99371113829059
 13
263.67658017388567
 23
201.99371113829059
  0
SOLID
  8
_1-9_
  6
CONTINUOUS
 62
   30
 10
250.36170986619518
 20
197.6976094401233
 11
263.67658017388567
 21
201.99371113829059
 12
262.25014535421292
 22
201.93627183516918
 13
262.25014535421292
 23
201.93627183516918
  0
SOLID
  8
_1-9_
  6
CONTINUOUS
 62
   30
 10
250.36170986619518
 20
197.6976094401233
 11
262.25014535421292
 21
201.93627183516918
 12
260.6618585339109
 22
201.75799474309449
 13
260.6618585339109
 23
201.75799474309449
  0
SOLID
  8
_1-9_
  6
CONTINUOUS
 62
   30
 10
250.36170986619518
 20
197.6976094401233
 11
260.6618585339109
 21
201.75799474309449
 12
259.93254315724158
 22
201.64454568450148
 13
259.93254315724158
 23
201.64454568450148
  0
SOLID
  8
_1-9_
  6
CONTINUOUS
 62
   30
 10
250.36170986619518
 20
197.6976094401233
 11
259.93254315724158
 21
201.64454568450148
 12
258.49011941227343
 22
201.33661252546332
 13
258.49011941227343
 23
201.33661252546332
  0
SOLID
  8
_1-9_
  6
CONTINUOUS
 62
   30
 10
250.36170986619518
 20
197.6976094401233
 11
258.49011941227343
 21
201.33661252546332
 12
257.8904601025676
 22
201.25557748361118
 13
257.8904601025676
 23
201.25557748361118
  0
SOLID
  8
_1-9_
  6
CONTINUOUS
 62
   30
 10
250.36170986619518
 20
197.6976094401233
 11
257.8904601025676
 21
201.25557748361118
 12
256.05906815670915
 22
200.62350415716446
 13
256.05906815670915
 23
200.62350415716446
  0
SOLID
  8
_1-9_
  6
CONTINUOUS
 62
   30
 10
250.36170986619518
 20
197.6976094401233
 11
256.05906815670915
 21
200.62350415716446
 12
255.26492474655817
 22
200.31557099812633
 13
255.26492474655817
 23
200.31557099812633
  0
SOLID
  8
_1-9_
  6
CONTINUOUS
 62
   30
 10
250.36170986619518
 20
197.6976094401233
 11
255.26492474655817
 21
200.31557099812633
 12
253.95215706855342
 22
199.78073972190219
 13
253.95215706855342
 23
199.78073972190219
  0
SOLID
  8
_1-9_
  6
CONTINUOUS
 62
   30
 10
250.36170986619518
 20
197.6976094401233
 11
253.95215706855342
 21
199.78073972190219
 12
252.86628750773471
 22
199.2297014373076
 13
252.86628750773471
 23
199.2297014373076
  0
SOLID
  8
_1-9_
  6
CONTINUOUS
 62
   30
 10
250.36170986619518
 20
197.6976094401233
 11
252.86628750773471
 21
199.2297014373076
 12
252.02352307247241
 22
198.74349118619475
 13
252.02352307247241
 23
198.74349118619475
  0
SOLID
  8
_1-9_
  6
CONTINUOUS
 62
   30
 10
263.67658017388567
 20
201.99371113829059
 11
261.17658429788275
 21
200.01566075868206
 12
263.67658017388567
 22
201.99371113829059
 13
267.1765793490863
 23
200.01566075868206
  0
SOLID
  8
_1-9_
  6
CONTINUOUS
 62
   30
 10
267.1765793490863
 20
200.01566075868206
 11
267.1765793490863
 21
198.59985958152834
 12
267.57657934908627
 22
198.59985958152834
 13
267.57657934908627
 23
198.59985958152834
  0
SOLID
  8
_1-9_
  6
CONTINUOUS
 62
   30
 10
267.1765793490863
 20
200.01566075868206
 11
267.57657934908627
 21
198.59985958152834
 12
278.87959650582366
 22
194.11125254081526
 13
278.87959650582366
 23
194.11125254081526
  0
SOLID
  8
_1-9_
  6
CONTINUOUS
 62
   30
 10
267.57657934908627
 20
198.59985958152834
 11
267.57657934908627
 21
193.60810757561617
 12
267.57657934908627
 22
198.59985958152834
 13
278.87959650582366
 23
194.11125254081526
  0
SOLID
  8
_1-9_
  6
CONTINUOUS
 62
   30
 10
263.67658017388567
 20
201.99371113829059
 11
266.03056700946507
 21
200.66333809514711
 12
266.35952432694137
 22
201.89102351749028
 13
266.35952432694137
 23
201.89102351749028
  0
SOLID
  8
_1-9_
  6
CONTINUOUS
 62
   30
 10
263.67658017388567
 20
201.99371113829059
 11
266.35952432694137
 21
201.89102351749028
 12
265.48341673006132
 22
201.94708109044433
 13
265.48341673006132
 23
201.94708109044433
  0
SOLID
  8
_1-9_
  6
CONTINUOUS
 62
   30
 10
263.67658017388567
 20
201.99371113829059
 11
265.48341673006132
 21
201.94708109044433
 12
264.95996902825232
 22
201.9678528246431
 13
264.95996902825232
 23
201.9678528246431
  0
SOLID
  8
_1-9_
  6
CONTINUOUS
 62
   30
 10
263.67658017388567
 20
201.99371113829059
 11
264.95996902825232
 21
201.9678528246431
 12
264.67747344314904
 22
201.98862455884185
 13
264.67747344314904
 23
201.98862455884185
  0
SOLID
  8
_1-9_
  6
CONTINUOUS
 62
   30
 10
263.67658017388567
 20
201.99371113829059
 11
264.67747344314904
 21
201.98862455884185
 12
264.38666916436625
 22
202.00939629304062
 13
264.38666916436625
 23
202.00939629304062
  0
SOLID
  8
_1-9_
  6
CONTINUOUS
 62
   30
 10
263.67658017388567
 20
201.99371113829059
 11
264.38666916436625
 21
202.00939629304062
 12
264.19972355657734
 22
202.00939629304062
 13
264.19972355657734
 23
202.00939629304062
  0
SOLID
  8
_1-9_
  6
CONTINUOUS
 62
   30
 10
266.35952432694148
 20
201.89102351749028
 11
266.03056700946507
 21
200.66333809514711
 12
266.35952432694137
 22
201.89102351749028
 13
267.4949070238406
 23
201.72830168382819
  0
SOLID
  8
_1-9_
  6
CONTINUOUS
 62
   30
 10
266.03056700946507
 20
200.66333809514711
 11
268.96770121073303
 21
199.11200365064991
 12
267.4949070238406
 22
201.72830168382819
 13
268.20773080494439
 23
201.61863648673528
  0
SOLID
  8
_1-9_
  6
CONTINUOUS
 62
   30
 10
268.96770121073303
 20
199.11200365064991
 11
269.56768721370258
 21
201.35118189756258
 12
268.20773080494439
 22
201.61863648673528
 13
268.68751604222581
 23
201.53638758891563
  0
SOLID
  8
_1-9_
  6
CONTINUOUS
 62
   30
 10
266.35952432694148
 20
201.89102351749028
 11
265.91199222715159
 21
200.22081098305671
 12
269.56768721370258
 22
201.35118189756258
 13
267.1765793490863
 23
200.01566075868206
  0
SOLID
  8
_1-9_
  6
CONTINUOUS
 62
   30
 10
267.1765793490863
 20
198.59985958152834
 11
269.11586277959856
 21
199.66495015338529
 12
267.21557478158115
 22
200.03744113303793
 13
267.21557478158115
 23
200.03744113303793
  0
SOLID
  8
_1-9_
  6
CONTINUOUS
 62
   30
 10
267.1765793490863
 20
198.59985958152834
 11
267.21557478158115
 21
200.03744113303793
 12
267.16623692445887
 22
200.06350038396982
 13
267.16623692445887
 23
200.06350038396982
  0
SOLID
  8
_1-9_
  6
CONTINUOUS
 62
   30
 10
269.56768721370258
 20
201.35118189756258
 11
268.96770121073303
 21
199.11200365064991
 12
269.56768721370253
 22
201.35118189756261
 13
278.87959650582366
 23
197.08420564855771
  0
SOLID
  8
_1-9_
  6
CONTINUOUS
 62
   30
 10
268.96770121073303
 20
199.11200365064991
 11
278.87959650582366
 21
194.11125254081526
 12
278.87959650582366
 22
197.08420564855771
 13
278.87959650582366
 23
197.08420564855771
  0
SOLID
  8
_1-9_
  6
CONTINUOUS
 62
   30
 10
269.56768721370253
 20
201.35118189756261
 11
278.87959650582366
 21
197.08420564855771
 12
270.57751449219415
 22
201.10746774456177
 13
271.35215698063882
 23
200.86539196692283
  0
SOLID
  8
_1-9_
  6
CONTINUOUS
 62
   30
 10
278.87959650582366
 20
197.08420564855771
 11
276.75851601457515
 21
198.47691096088528
 12
271.35215698063882
 22
200.86539196692283
 13
272.48184394295384
 23
200.49420910787646
  0
SOLID
  8
_1-9_
  6
CONTINUOUS
 62
   30
 10
276.75851601457515
 20
198.47691096088528
 11
274.9187401045192
 21
199.49362922696884
 12
272.48184394295384
 22
200.49420910787646
 13
273.07896419446325
 23
200.28441010058935
  0
TEXT
  8
_0-0_
 62
    7
 10
25.556194717819636
 20
20.211577544341225
 40
2.5
 41
1
 50
0
  1
鉄骨
  0
TEXT
  8
_1-4_
 62
    7
 10
394.71147279481636
 20
15.42184159562396
 40
2.5
 41
1
 50
0
  1
45
  0
LINE
  8
ADD_LINE
  6
DOT
 62
    4
 10
85.363259883019836
 20
118.18352156055869
 11
85.363259883019836
 21
60.773698396612687
  0
LINE
  8
_1-0_
  6
CONTINUOUS
 62
    4
 10
249.40075910385457
 20
169.30543668940658
 11
255.38214427415483
 21
175.28682185970683
  0
LINE
  8
_1-0_
  6
CONTINUOUS
 62
    4
 10
244.25816449004299
 20
166.99126920034166
 11
250.23954843401378
 21
172.97265314431246
  0
LINE
  8
_1-0_
  6
CONTINUOUS
 62
    4
 10
239.11556987623266
 20
164.677101711278
 11
245.09695259387149
 21
170.65848442891686
  0
LINE
  8
_1-0_
  6
CONTINUOUS
 62
    4
 10
233.97297526242187
 20
162.36293422221388
 11
239.95435675373034
 21
168.34431571352235
  0
LINE
  8
_1-0_
  6
CONTINUOUS
 62
    4
 10
228.83038064861404
 20
160.0487667331509
 11
234.8117609135916
 21
166.03014699812846
  0
LINE
  8
_1-0_
  6
CONTINUOUS
 62
    4
 10
223.68778603480257
 20
157.7345992440861
 11
229.66916507345056
 21
163.71597828273408
  0
LINE
  8
_1-0_
  6
CONTINUOUS
 62
    4
 10
218.54519142099224
 20
155.42043175502243
 11
224.52656923330844
 21
161.40180956733863
  0
LINE
  8
_1-0_
  6
CONTINUOUS
 62
    4
 10
213.40259680718012
 20
153.10626426595701
 11
219.38397339316606
 21
159.08764085194292
  0
LINE
  8
_1-0_
  6
CONTINUOUS
 62
    4
 10
208.26000219337249
 20
150.7920967768942
 11
214.24137755302837
 21
156.77347213655008
  0
LINE
  8
_1-0_
  6
CONTINUOUS
 62
    4
 10
203.11740757956215
 20
148.47792928783056
 11
209.09878171288733
 21
154.45930342115571
  0
LINE
  8
_1-0_
  6
CONTINUOUS
 62
    4
 10
197.97481296575182
 20
146.1637617987669
 11
203.95618587274538
 21
152.14513470576043
  0
LINE
  8
_1-0_
  6
CONTINUOUS
 62
    4
 10
192.83221835194325
 20
143.84959430970318
 11
198.81359003260616
 21
149.83096599036608
  0
LINE
  8
_1-0_
  6
CONTINUOUS
 62
    4
 10
187.68962373813207
 20
141.53542682063866
 11
193.67099419246514
 21
147.51679727497171
  0
LINE
  8
_1-0_
  6
CONTINUOUS
 62
    4
 10
182.54702912432177
 20
139.221259331575
 11
188.52839835232331
 21
145.20262855957654
  0
LINE
  8
_1-0_
  6
CONTINUOUS
 62
    4
 10
177.40443451051078
 20
136.90709184251068
 11
183.38580251218232
 21
142.88845984418222
  0
LINE
  8
_1-0_
  6
CONTINUOUS
 62
    4
 10
172.2618398967027
 20
134.59292435344744
 11
178.24320667204296
 21
140.57429112878771
  0
LINE
  8
_1-0_
  6
CONTINUOUS
 62
    4
 10
167.11924528289168
 20
132.27875686438313
 11
173.10061083190192
 21
138.26012241339336
  0
LINE
  8
_1-0_
  6
CONTINUOUS
 62
    4
 10
161.97665066908135
 20
129.96458937531946
 11
167.95801499176025
 21
135.94595369799833
  0
LINE
  8
_1-0_
  6
CONTINUOUS
 62
    4
 10
156.8340560552702
 20
127.65042188625496
 11
162.81541915161927
 21
133.63178498260402
  0
LINE
  8
_1-0_
  6
CONTINUOUS
 62
    4
 10
151.69146144146214
 20
125.33625439719174
 11
157.67282331147973
 21
131.31761626720936
  0
LINE
  8
_1-0_
  6
CONTINUOUS
 62
    4
 10
146.5488668276513
 20
123.02208690812756
 11
152.53022747133872
 21
129.00344755181499
  0
LINE
  8
_1-0_
  6
CONTINUOUS
 62
    4
 10
141.40627221384096
 20
120.7079194190639
 11
147.38763163119717
 21
126.68927883642013
  0
LINE
  8
_1-0_
  6
CONTINUOUS
 62
    4
 10
136.26367760002864
 20
118.39375192999826
 11
142.24503579105524
 21
124.37511012102487
  0
LINE
  8
_1-0_
  6
CONTINUOUS
 62
    4
 10
131.12108298622155
 20
116.07958444093603
 11
137.10243995091651
 21
122.06094140563097
  0
LINE
  8
_1-0_
  6
CONTINUOUS
 62
    4
 10
125.97848837241088
 20
113.76541695187203
 11
131.95984411077549
 21
119.74677269023663
  0
LINE
  8
_1-0_
  6
CONTINUOUS
 62
    4
 10
120.83589375860055
 20
111.45124946280836
 11
126.81724827063412
 21
117.43260397484192
  0
LINE
  8
_1-0_
  6
CONTINUOUS
 62
    4
 10
115.69329914478791
 20
109.13708197374238
 11
121.67465243049202
 21
115.1184352594465
  0
LINE
  8
_1-0_
  6
CONTINUOUS
 62
    4
 10
110.55070453098079
 20
106.82291448468013
 11
116.53205659035328
 21
112.80426654405261
  0
LINE
  8
_1-0_
  6
CONTINUOUS
 62
    4
 10
105.40810991717048
 20
104.50874699561648
 11
111.38946075021227
 21
110.49009782865825
  0
LINE
  8
_1-0_
  6
CONTINUOUS
 62
    4
 10
100.26551530336015
 20
102.19457950655281
 11
106.24686491007108
 21
108.17592911326373
  0
LINE
  8
_1-0_
  6
CONTINUOUS
 62
    4
 10
99.506085159129782
 20
105.14257745548167
 11
101.7748724276897
 21
102.87379018692177
  0
LINE
  8
_1-0_
  6
CONTINUOUS
 62
    4
 10
101.45672440186388
 20
106.02036533749244
 11
103.72551184686353
 21
103.75157789249278
  0
LINE
  8
_1-0_
  6
CONTINUOUS
 62
    4
 10
103.40736364459892
 20
106.89815321950407
 11
105.6761512660385
 21
104.62936559806448
  0
LINE
  8
_1-0_
  6
CONTINUOUS
 62
    4
 10
105.35800288733397
 20
107.77594110151568
 11
107.62679068521345
 21
105.5071533036362
  0
LINE
  8
_1-0_
  6
CONTINUOUS
 62
    4
 10
107.30864213006899
 20
108.65372898352732
 11
109.57743010438857
 21
106.38494100920774
  0
LINE
  8
_1-0_
  6
CONTINUOUS
 62
    4
 10
109.25928137280307
 20
109.53151686553808
 11
111.52806952356241
 21
107.26272871477875
  0
LINE
  8
_1-0_
  6
CONTINUOUS
 62
    4
 10
111.20992061553811
 20
110.40930474754973
 11
113.47870894273738
 21
108.14051642035044
  0
LINE
  8
_1-0_
  6
CONTINUOUS
 62
    4
 10
113.16055985827316
 20
111.28709262956133
 11
115.42934836191233
 21
109.01830412592217
  0
LINE
  8
_1-0_
  6
CONTINUOUS
 62
    4
 10
115.1111991010082
 20
112.16488051157297
 11
117.37998778108745
 21
109.89609183149372
  0
LINE
  8
_1-0_
  6
CONTINUOUS
 62
    4
 10
117.06183834374228
 20
113.04266839358374
 11
119.33062720026132
 21
110.77387953706469
  0
LINE
  8
_1-0_
  6
CONTINUOUS
 62
    4
 10
119.0124775864773
 20
113.92045627559538
 11
121.28126661943627
 21
111.65166724263641
  0
LINE
  8
_1-0_
  6
CONTINUOUS
 62
    4
 10
120.96311682921237
 20
114.79824415760697
 11
123.23190603861138
 21
112.52945494820797
  0
LINE
  8
_1-0_
  6
CONTINUOUS
 62
    4
 10
122.9137560719463
 20
115.67603203961791
 11
125.18254545778505
 21
113.40724265377914
  0
LINE
  8
_1-0_
  6
CONTINUOUS
 62
    4
 10
124.86439531468147
 20
116.55381992162938
 11
127.1331848769602
 21
114.28503035935066
  0
LINE
  8
_1-0_
  6
CONTINUOUS
 62
    4
 10
126.81503455741655
 20
117.43160780364099
 11
129.08382429613516
 21
115.16281806492238
  0
LINE
  8
_1-0_
  6
CONTINUOUS
 62
    4
 10
128.76567380015157
 20
118.30939568565262
 11
131.03446371531027
 21
116.04060577049395
  0
LINE
  8
_1-0_
  6
CONTINUOUS
 62
    4
 10
130.7163130428855
 20
119.18718356766354
 11
132.98510313448395
 21
116.91839347606511
  0
LINE
  8
_1-0_
  6
CONTINUOUS
 62
    4
 10
132.66695228562068
 20
120.06497144967504
 11
134.93574255365911
 21
117.79618118163663
  0
LINE
  8
_1-0_
  6
CONTINUOUS
 62
    4
 10
134.61759152835577
 20
120.94275933168663
 11
136.88638197283404
 21
118.67396888720835
  0
LINE
  8
_1-0_
  6
CONTINUOUS
 62
    4
 10
136.56823077109078
 20
121.82054721369826
 11
138.83702139200912
 21
119.55175659277992
  0
LINE
  8
_1-0_
  6
CONTINUOUS
 62
    4
 10
138.51887001382485
 20
122.69833509570906
 11
140.78766081118295
 21
120.42954429835093
  0
LINE
  8
_1-0_
  6
CONTINUOUS
 62
    4
 10
140.46950925655989
 20
123.5761229777207
 11
142.73830023035799
 21
121.3073320039226
  0
LINE
  8
_1-0_
  6
CONTINUOUS
 62
    4
 10
142.42014849929495
 20
124.45391085973228
 11
144.68893964953293
 21
122.18511970949432
  0
LINE
  8
_1-0_
  6
CONTINUOUS
 62
    4
 10
144.37078774202999
 20
125.33169874174391
 11
146.639579068708
 21
123.06290741506589
  0
LINE
  8
_1-0_
  6
CONTINUOUS
 62
    4
 10
146.32142698476406
 20
126.20948662375471
 11
148.59021848788183
 21
123.94069512063692
  0
LINE
  8
_1-0_
  6
CONTINUOUS
 62
    4
 10
148.27206622749907
 20
127.08727450576635
 11
150.54085790705685
 21
124.81848282620857
  0
LINE
  8
_1-0_
  6
CONTINUOUS
 62
    4
 10
150.22270547023416
 20
127.96506238777792
 11
152.49149732623181
 21
125.69627053178029
  0
LINE
  8
_1-0_
  6
CONTINUOUS
 62
    4
 10
152.1733447129692
 20
128.84285026978955
 11
154.44213674540688
 21
126.57405823735188
  0
LINE
  8
_1-0_
  6
CONTINUOUS
 62
    4
 10
154.12398395570324
 20
129.72063815180036
 11
156.39277616458079
 21
127.4518459429228
  0
LINE
  8
_1-0_
  6
CONTINUOUS
 62
    4
 10
156.07462319843827
 20
130.59842603381202
 11
158.34341558375576
 21
128.32963364849454
  0
LINE
  8
_1-0_
  6
CONTINUOUS
 62
    4
 10
158.02526244117337
 20
131.47621391582356
 11
160.29405500293069
 21
129.20742135406624
  0
LINE
  8
_1-0_
  6
CONTINUOUS
 62
    4
 10
159.9759016839073
 20
132.35400179783448
 11
162.24469442210454
 21
130.08520905963726
  0
LINE
  8
_1-0_
  6
CONTINUOUS
 62
    4
 10
161.92654092664242
 20
133.23178967984603
 11
164.19533384127968
 21
130.96299676520877
  0
LINE
  8
_1-0_
  6
CONTINUOUS
 62
    4
 10
163.87718016937754
 20
134.10957756185758
 11
166.14597326045464
 21
131.84078447078051
  0
LINE
  8
_1-0_
  6
CONTINUOUS
 62
    4
 10
165.82781941211258
 20
134.98736544386921
 11
168.09661267962969
 21
132.7185721763521
  0
LINE
  8
_1-0_
  6
CONTINUOUS
 62
    4
 10
167.7784586548465
 20
135.86515332588013
 11
170.04725209880343
 21
133.59635988192323
  0
LINE
  8
_1-0_
  6
CONTINUOUS
 62
    4
 10
169.72909789758165
 20
136.74294120789168
 11
171.99789151797856
 21
134.47414758749474
  0
LINE
  8
_1-0_
  6
CONTINUOUS
 62
    4
 10
171.67973714031677
 20
137.62072908990322
 11
173.94853093715352
 21
135.35193529306645
  0
LINE
  8
_1-0_
  6
CONTINUOUS
 62
    4
 10
173.63037638305178
 20
138.49851697191485
 11
175.89917035632857
 21
136.2297229986381
  0
LINE
  8
_1-0_
  6
CONTINUOUS
 62
    4
 10
175.58101562578582
 20
139.37630485392569
 11
177.84980977550242
 21
137.10751070420909
  0
LINE
  8
_1-0_
  6
CONTINUOUS
 62
    4
 10
177.53165486852083
 20
140.25409273593732
 11
179.80044919467747
 21
137.98529840978071
  0
LINE
  8
_1-0_
  6
CONTINUOUS
 62
    4
 10
179.48229411125595
 20
141.13188061794887
 11
181.7510886138524
 21
138.86308611535244
  0
LINE
  8
_1-0_
  6
CONTINUOUS
 62
    4
 10
181.43293335399099
 20
142.0096684999605
 11
183.70172803302745
 21
139.74087382092407
  0
LINE
  8
_1-0_
  6
CONTINUOUS
 62
    4
 10
183.383572596725
 20
142.88745638197133
 11
185.65236745220128
 21
140.61866152649506
  0
LINE
  8
_1-0_
  6
CONTINUOUS
 62
    4
 10
185.33421183946004
 20
143.76524426398296
 11
187.60300687137635
 21
141.49644923206668
  0
LINE
  8
_1-0_
  6
CONTINUOUS
 62
    4
 10
187.28485108219516
 20
144.64303214599451
 11
189.55364629055128
 21
142.37423693763839
  0
LINE
  8
_1-0_
  6
CONTINUOUS
 62
    4
 10
189.2354903249302
 20
145.52082002800614
 11
191.5042857097263
 21
143.25202464321004
  0
LINE
  8
_1-0_
  6
CONTINUOUS
 62
    4
 10
191.18612956766421
 20
146.39860791001701
 11
193.45492512890027
 21
144.12981234878092
  0
LINE
  8
_1-0_
  6
CONTINUOUS
 62
    4
 10
193.13676881039922
 20
147.27639579202864
 11
195.4055645480752
 21
145.00760005435265
  0
LINE
  8
_1-0_
  6
CONTINUOUS
 62
    4
 10
195.08740805313437
 20
148.15418367404015
 11
197.35620396725017
 21
145.88538775992436
  0
LINE
  8
_1-0_
  6
CONTINUOUS
 62
    4
 10
197.03804729586818
 20
149.03197155605122
 11
199.30684338642388
 21
146.76317546549549
  0
LINE
  8
_1-0_
  6
CONTINUOUS
 62
    4
 10
198.98868653860339
 20
149.90975943806265
 11
201.25748280559915
 21
147.64096317106689
  0
LINE
  8
_1-0_
  6
CONTINUOUS
 62
    4
 10
200.93932578133857
 20
150.78754732007417
 11
203.20812222477412
 21
148.51875087663859
  0
LINE
  8
_1-0_
  6
CONTINUOUS
 62
    4
 10
202.88996502407358
 20
151.6653352020858
 11
205.15876164394911
 21
149.39653858221027
  0
LINE
  8
_1-0_
  6
CONTINUOUS
 62
    4
 10
204.8406042668075
 20
152.54312308409672
 11
207.1094010631229
 21
150.27432628778132
  0
LINE
  8
_1-0_
  6
CONTINUOUS
 62
    4
 10
206.7912435095426
 20
153.42091096610829
 11
209.06004048229804
 21
151.15211399335286
  0
LINE
  8
_1-0_
  6
CONTINUOUS
 62
    4
 10
208.74188275227775
 20
154.29869884811981
 11
211.010679901473
 21
152.02990169892459
  0
LINE
  8
_1-0_
  6
CONTINUOUS
 62
    4
 10
210.69252199501278
 20
155.17648673013144
 11
212.96131932064799
 21
152.90768940449624
  0
LINE
  8
_1-0_
  6
CONTINUOUS
 62
    4
 10
212.64316123774671
 20
156.05427461214236
 11
214.91195873982178
 21
153.78547711006729
  0
LINE
  8
_1-0_
  6
CONTINUOUS
 62
    4
 10
214.59380048048178
 20
156.93206249415397
 11
216.86259815899695
 21
154.66326481563883
  0
LINE
  8
_1-0_
  6
CONTINUOUS
 62
    4
 10
216.54443972321695
 20
157.80985037616546
 11
218.81323757817188
 21
155.54105252121053
  0
LINE
  8
_1-0_
  6
CONTINUOUS
 62
    4
 10
218.49507896595199
 20
158.68763825817709
 11
220.76387699734687
 21
156.41884022678221
  0
LINE
  8
_1-0_
  6
CONTINUOUS
 62
    4
 10
220.44571820868597
 20
159.56542614018798
 11
222.71451641652072
 21
157.29662793235323
  0
LINE
  8
_1-0_
  6
CONTINUOUS
 62
    4
 10
222.39635745142098
 20
160.44321402219961
 11
224.66515583569583
 21
158.1744156379248
  0
LINE
  8
_1-0_
  6
CONTINUOUS
 62
    4
 10
224.34699669415619
 20
161.3210019042111
 11
226.61579525487076
 21
159.0522033434965
  0
LINE
  8
_1-0_
  6
CONTINUOUS
 62
    4
 10
226.2976359368912
 20
162.19878978622273
 11
228.56643467404575
 21
159.92999104906821
  0
LINE
  8
_1-0_
  6
CONTINUOUS
 62
    4
 10
228.24827517962515
 20
163.07657766823363
 11
230.51707409321975
 21
160.80777875463903
  0
LINE
  8
_1-0_
  6
CONTINUOUS
 62
    4
 10
230.19891442236019
 20
163.95436555024526
 11
232.46771351239471
 21
161.68556646021077
  0
LINE
  8
_1-0_
  6
CONTINUOUS
 62
    4
 10
232.1495536650954
 20
164.83215343225675
 11
234.41835293156964
 21
162.56335416578247
  0
LINE
  8
_1-0_
  6
CONTINUOUS
 62
    4
 10
234.10019290782913
 20
165.70994131426784
 11
236.36899235074333
 21
163.44114187135366
  0
LINE
  8
_1-0_
  6
CONTINUOUS
 62
    4
 10
236.05083215056436
 20
166.5877291962793
 11
238.31963176991863
 21
164.318929576925
  0
LINE
  8
_1-0_
  6
CONTINUOUS
 62
    4
 10
238.00147139329954
 20
167.46551707829076
 11
240.27027118909359
 21
165.19671728249673
  0
LINE
  8
_1-0_
  6
CONTINUOUS
 62
    4
 10
239.9521106360346
 20
168.34330496030239
 11
242.22091060826855
 21
166.07450498806844
  0
LINE
  8
_1-0_
  6
CONTINUOUS
 62
    4
 10
241.9027498787685
 20
169.22109284231331
 11
244.17155002744238
 21
166.95229269363946
  0
LINE
  8
ADD_LINE
  6
DOT
 62
    4
 10
263.00591795290336
 20
175.42775794091432
 11
274.8557561933755
 21
149.09478308091312
  0
LINE
  8
ADD_LINE
  6
DOT
 62
    4
 10
263.20591795290341
 20
153.58604587715118
 11
250.86802309317
 21
181.00359104304647
  0
LINE
  8
ADD_LINE
  6
DOT
 62
    4
 10
255.13376015097319
 20
149.95357500308
 11
273.34534279058028
 21
149.95357500308
  0
LINE
  8
_1-0_
  6
CONTINUOUS
 62
    7
 10
262.46780045183425
 20
144.405481278275
 11
262.46780045183425
 21
101.20548927827501
  0
LINE
  8
_1-0_
  6
CONTINUOUS
 62
    7
 10
263.66780045183424
 20
144.405481278275
 11
263.66780045183424
 21
101.20548927827501
  0
LINE
  8
_1-0_
  6
CONTINUOUS
 62
    7
 10
250.56780045183422
 20
147.80548127827501
 11
275.56780045183422
 21
147.80548127827501
  0
LINE
  8
_1-0_
  6
CONTINUOUS
 62
    7
 10
250.56780045183422
 20
146.005481278275
 11
260.86780045183423
 21
146.005481278275
  0
LINE
  8
_1-0_
  6
CONTINUOUS
 62
    7
 10
265.2678004518342
 20
146.005481278275
 11
275.56780045183422
 21
146.005481278275
  0
LINE
  8
_1-0_
  6
CONTINUOUS
 62
    7
 10
250.56780045183422
 20
147.80548127827501
 11
250.56780045183422
 21
146.005481278275
  0
LINE
  8
_1-0_
  6
CONTINUOUS
 62
    7
 10
250.56780045183422
 20
97.805489278275004
 11
275.56780045183422
 21
97.805489278275004
  0
LINE
  8
_1-0_
  6
CONTINUOUS
 62
    7
 10
250.56780045183422
 20
99.605489278275002
 11
260.86780045183423
 21
99.605489278275002
  0
LINE
  8
_1-0_
  6
CONTINUOUS
 62
    7
 10
265.2678004518342
 20
99.605489278275002
 11
275.56780045183422
 21
99.605489278275002
  0
LINE
  8
_1-0_
  6
CONTINUOUS
 62
    7
 10
250.56780045183422
 20
97.805489278275004
 11
250.56780045183422
 21
99.605489278275002
  0
LINE
  8
_1-0_
  6
CONTINUOUS
 62
    7
 10
275.56780045183422
 20
97.805489278275004
 11
275.56780045183422
 21
99.605489278275002
  0
ARC
  8
_1-0_
  6
CONTINUOUS
 62
    7
 10
260.86780045183423
 20
144.405481278275
 40
1.6000000000000001
 50
0
 51
90
  0
ARC
  8
_1-0_
  6
CONTINUOUS
 62
    7
 10
265.2678004518342
 20
144.405481278275
 40
1.6000000000000001
 50
90
 51
180
  0
ARC
  8
_1-0_
  6
CONTINUOUS
 62
    7
 10
260.86780045183423
 20
101.20548927827501
 40
1.6000000000000001
 50
270
 51
0
  0
ARC
  8
_1-0_
  6
CONTINUOUS
 62
    7
 10
265.2678004518342
 20
101.20548927827501
 40
1.6000000000000001
 50
180
 51
270
  0
LINE
  8
_1-0_
  6
CONTINUOUS
 62
    7
 10
278.7678004518342
 20
147.80548127827501
 11
278.7678004518342
 21
50.594551330707404
  0
LINE
  8
ADD_LINE
  6
DOT
 62
    4
 10
246.34127440052146
 20
173.95094079180294
 11
247.66521643001295
 21
170.35399758743512
  0
LINE
  8
ADD_LINE
  6
DOT
 62
    4
 10
243.52592842041886
 20
172.91468454341637
 11
244.84987044991038
 21
169.31774133904855
  0
LINE
  8
ADD_LINE
  6
DOT
 62
    4
 10
240.63726686515409
 20
170.40615500870538
 11
241.70549852840836
 21
168.03233788125917
  0
LINE
  8
_1-7_
  6
CONTINUOUS
 62
    7
 10
275.56780045183422
 20
187.52101295440085
 11
282.07959650582364
 21
187.52101295440085
  0
LINE
  8
_1-7_
  6
CONTINUOUS
 62
    7
 10
275.67959650582361
 20
187.52101295440085
 11
278.7678004518342
 21
187.52101295440085
  0
LINE
  8
_1-0_
  6
CONTINUOUS
 62
    7
 10
278.7678004518342
 20
147.80548127827501
 11
278.7678004518342
 21
187.52101295440085
  0
LINE
  8
_1-6_
  6
CONTINUOUS
 62
    7
 10
265.19432392588544
 20
180.79890246439109
 11
275.56780045183422
 21
185.46696814505054
  0
LINE
  8
ADD_LINE
  6
DOT
 62
    4
 10
273.75287048583533
 20
157.39807484286447
 11
264.17066441647376
 21
178.69186691051021
  0
LINE
  8
ADD_LINE
  6
DOT
 62
    4
 10
272.93139178585568
 20
159.22358261439732
 11
273.61918725204458
 21
157.69514894453783
  0
LINE
  8
ADD_LINE
  6
DOT
 62
    4
 10
272.35460169426455
 20
157.70295340573327
 11
274.1900852972683
 21
158.52892099596068
  0
LINE
  8
_1-0_
  6
CONTINUOUS
 62
    4
 10
246.13157939286577
 20
171.07517301187158
 11
248.40037918865983
 21
168.80637321607756
  0
LINE
  8
_1-0_
  6
CONTINUOUS
 62
    4
 10
244.1809401501306
 20
170.19738512986012
 11
246.41602078395647
 21
167.96230449603422
  0
LINE
  8
_1-0_
  6
CONTINUOUS
 62
    4
 10
265.43999196219028
 20
179.769604402737
 11
267.67896660828472
 21
177.53062975664258
  0
LINE
  8
_1-0_
  6
CONTINUOUS
 62
    4
 10
248.04849891773523
 20
171.98668061174882
 11
250.31729962230656
 21
169.71787990717749
  0
LINE
  8
_1-0_
  6
CONTINUOUS
 62
    4
 10
249.99913816046907
 20
172.8644684937598
 11
252.26793904148033
 21
170.59566761274854
  0
LINE
  8
_1-0_
  6
CONTINUOUS
 62
    4
 10
251.65594609244283
 20
173.61003225237053
 11
253.92474712331639
 21
171.34123122149694
  0
LINE
  8
_1-0_
  6
CONTINUOUS
 62
    4
 10
263.45952509057469
 20
178.92164414960592
 11
265.72832718910968
 21
176.65284205107096
  0
LINE
  8
_1-0_
  6
CONTINUOUS
 62
    4
 10
267.36080357604493
 20
180.67721991362905
 11
269.62960602745977
 21
178.40841746221423
  0
LINE
  8
_1-0_
  6
CONTINUOUS
 62
    4
 10
269.3114428187788
 20
181.55500779564002
 11
271.58024544663351
 21
179.28620516778528
  0
LINE
  8
_1-0_
  6
CONTINUOUS
 62
    4
 10
271.35057430579798
 20
182.47261719768602
 11
273.69981910708907
 21
180.12337239639498
  0
LINE
  8
_1-0_
  6
CONTINUOUS
 62
    4
 10
273.3012135485331
 20
183.35040507969759
 11
275.57001653727201
 21
181.08160209095868
  0
LINE
  8
_1-0_
  6
CONTINUOUS
 62
    4
 10
253.60658533517795
 20
174.48782013438208
 11
255.8753865424913
 21
172.2190189270687
  0
LINE
  8
_1-0_
  6
CONTINUOUS
 62
    4
 10
255.58643953152512
 20
175.37875474885564
 11
257.85524091792092
 21
173.10995336245981
  0
LINE
  8
_1-0_
  6
CONTINUOUS
 62
    4
 10
257.50786382064695
 20
176.2433958984046
 11
259.77666538084014
 21
173.9745943382114
  0
LINE
  8
_1-0_
  6
CONTINUOUS
 62
    4
 10
259.45850306338195
 20
177.12118378041623
 11
261.72730480001513
 21
174.85238204378305
  0
LINE
  8
_1-0_
  6
CONTINUOUS
 62
    4
 10
261.40914230611719
 20
177.99897166242766
 11
263.67794421919018
 21
175.73016974935467
  0
LINE
  8
_1-0_
  6
CONTINUOUS
 62
    4
 10
259.68594833147301
 20
173.93377166753353
 11
265.66733595443446
 21
179.91515929049496
  0
LINE
  8
_1-0_
  6
CONTINUOUS
 62
    4
 10
254.5433537176626
 20
171.61960417846976
 11
260.5247401142928
 21
177.60099057509996
  0
LINE
  8
_1-0_
  6
CONTINUOUS
 62
    4
 10
265.28294951996327
 20
176.4524221075028
 11
271.26433101127174
 21
182.43380359881127
  0
LINE
  8
_1-0_
  6
CONTINUOUS
 62
    4
 10
265.41016716537052
 20
179.79942919955678
 11
267.67896660828472
 21
177.53062975664258
  0
LINE
  8
_1-0_
  6
CONTINUOUS
 62
    4
 10
267.36080640810576
 20
180.67721708156822
 11
269.62960602746
 21
178.40841746221395
  0
LINE
  8
_1-0_
  6
CONTINUOUS
 62
    4
 10
269.31144565084094
 20
181.55500496357968
 11
271.58024544663499
 21
179.28620516778565
  0
LINE
  8
_1-0_
  6
CONTINUOUS
 62
    4
 10
271.35057767518282
 20
182.47261382830123
 11
273.61937711809696
 21
180.20381438538706
  0
LINE
  8
_1-0_
  6
CONTINUOUS
 62
    4
 10
273.30121691791805
 20
183.35040171031267
 11
275.57001653727229
 21
181.0816020909584
  0
LINE
  8
_1-0_
  6
CONTINUOUS
 62
    4
 10
271.22336002977551
 20
179.12560673624728
 11
275.56780045183422
 21
183.47004715830596
  0
LINE
  8
_1-0_
  6
CONTINUOUS
 62
    4
 10
275.25185279126822
 20
184.22819296170914
 11
275.56780045183422
 21
183.91224530114314
  0
LINE
  8
_1-0_
  6
CONTINUOUS
 62
    4
 10
275.25185616065323
 20
184.22818959232416
 11
275.56780045183422
 21
183.91224530114314
  0
LINE
  8
_1-0_
  6
CONTINUOUS
 62
    7
 10
282.07959650582364
 20
187.52101295440085
 11
282.07959650582364
 21
151.90663329296385
  0
LINE
  8
_1-0_
  6
CONTINUOUS
 62
    7
 10
282.07959650582364
 20
151.90663329296385
 11
281.08347139217216
 21
151.90663329296385
  0
LINE
  8
_1-0_
  6
CONTINUOUS
 62
    7
 10
281.08347139217216
 20
151.90663329296385
 11
281.08347139217216
 21
148.93620603529754
  0
LINE
  8
_1-0_
  6
CONTINUOUS
 62
    7
 10
281.08347139217216
 20
148.93620603529754
 11
278.7678004518342
 21
148.93620603529754
  0
LINE
  8
_1-0_
  6
CONTINUOUS
 62
    7
 10
275.56780045183422
 20
147.80548127827501
 11
275.56780045183422
 21
138.62876307665769
  0
LINE
  8
_1-0_
  6
CONTINUOUS
 62
    7
 10
275.56780045183422
 20
138.62876307665769
 11
275.56780045183422
 21
50.594551330707404
  0
LINE
  8
_1-0_
  6
CONTINUOUS
 62
    7
 10
113.43220293325327
 20
33.113133470392384
 11
257.1929990314112
 21
97.805489278275004
  0
LINE
  8
_1-0_
  6
CONTINUOUS
 62
    7
 10
114.08878639641662
 20
31.654059052858983
 11
261.09197021120025
 21
97.805489278275004
  0
LINE
  8
_1-0_
  6
CONTINUOUS
 62
    7
 10
254.25918954031488
 20
147.80548127827501
 11
275.56780045183422
 21
157.39435582734552
  0
ARC
  8
_1-0_
  6
CONTINUOUS
 62
    7
 10
262.57414747918335
 20
146.30764959768277
 40
4.4698967635701878
 50
183.87619307982021
 51
268.63669987319122
  0
ARC
  8
_1-0_
  6
CONTINUOUS
 62
    7
 10
262.4345313606193
 20
100.23433047153233
 40
4.10860609543841
 50
89.536047189252997
 51
188.80398866855873
  0
LINE
  8
ADD_LINE
  6
DOT
 62
    4
 10
263.06780045183422
 20
149.65843644322098
 11
263.06780045183422
 21
94.510069610404543
  0
LINE
  8
_1-0_
  6
CONTINUOUS
 62
    7
 10
263.66780045183424
 20
144.405481278275
 11
263.66780045183424
 21
101.20548927827501
  0
ARC
  8
_1-0_
  6
CONTINUOUS
 62
    7
 10
265.2678004518342
 20
144.405481278275
 40
1.6000000000000001
 50
90
 51
180
  0
ARC
  8
_1-0_
  6
CONTINUOUS
 62
    7
 10
265.2678004518342
 20
101.20548927827501
 40
1.6000000000000001
 50
180
 51
270
  0
ARC
  8
_1-0_
  6
CONTINUOUS
 62
    7
 10
263.56145342448508
 20
146.30764959768277
 40
4.4698967635701878
 50
271.36330012680878
 51
356.12380692017979
  0
ARC
  8
_1-0_
  6
CONTINUOUS
 62
    7
 10
263.70106954304919
 20
100.23433047153233
 40
4.10860609543841
 50
351.19601133144124
 51
90.463952810746974
  0
LINE
  8
ADD_LINE
  6
DOT
 62
    4
 10
97.836938435940098
 20
123.79667840521056
 11
97.836938435940098
 21
29.348585690515804
  0
LINE
  8
_1-0_
  6
CONTINUOUS
 62
    7
 10
97.836938435940098
 20
79.170007896996154
 11
275.56780045183422
 21
159.14889279217545
  0
LINE
  8
_1-0_
  6
CONTINUOUS
 62
    7
 10
97.836938435940098
 20
77.41547093216623
 11
250.51583060886327
 21
146.1209698225598
  0
LINE
  8
_1-0_
  6
CONTINUOUS
 62
    7
 10
97.836938435940098
 20
101.10171995736992
 11
275.56780045183422
 21
181.08060485254924
  0
LINE
  8
_1-0_
  6
CONTINUOUS
 62
    4
 10
97.836938435940098
 20
103.98329705392469
 11
99.824233008514568
 21
101.99600248135023
  0
LINE
  8
_1-0_
  6
CONTINUOUS
 62
    7
 10
97.836938435940098
 20
104.39146123941444
 11
275.56780045183422
 21
184.37036944504791
  0
LINE
  8
_1-1_
  6
DASHED1
 62
    3
 10
97.836938435940098
 20
105.26873691626301
 11
275.56780045183422
 21
185.2476461368181
  0
LINE
  8
_1-0_
  6
CONTINUOUS
 62
    7
 10
97.836938435940098
 20
105.48805892449548
 11
263.20591795290341
 21
179.90411953810047
  0
LINE
  8
_1-0_
  6
CONTINUOUS
 62
    7
 10
97.836938435940098
 20
106.14600124581477
 11
263.19432419244396
 21
180.556835223165
  0
LINE
  8
_1-0_
  6
CONTINUOUS
 62
    4
 10
97.836938435940098
 20
102.5944297638776
 11
101.10426906993111
 21
105.86176039786861
  0
LINE
  8
ADD_LINE
  6
DOT
 62
    4
 10
164.32228917041363
 20
108.15431510653976
 11
154.74008310105205
 21
129.44810717418548
  0
LINE
  8
_1-0_
  6
CONTINUOUS
 62
    3
 10
156.23736344850235
 20
126.12081976685518
 11
163.50083171213186
 21
109.97981518897195
  0
LINE
  8
_1-0_
  6
CONTINUOUS
 62
    3
 10
156.65686542171804
 20
126.30959607593059
 11
163.92033368534754
 21
110.16859149804736
  0
LINE
  8
_1-0_
  6
CONTINUOUS
 62
    3
 10
156.81415581399037
 20
127.64144206288358
 11
163.83594876595086
 21
130.80125594028175
  0
LINE
  8
_1-0_
  6
CONTINUOUS
 62
    3
 10
157.00292063283348
 20
127.22196562346045
 11
164.024713584794
 21
130.38177950085858
  0
LINE
  8
_1-0_
  6
CONTINUOUS
 62
    3
 10
165.02146130352958
 20
109.40302610640744
 11
172.04325425549007
 21
112.56283998380559
  0
LINE
  8
_1-0_
  6
CONTINUOUS
 62
    3
 10
164.83269320176291
 20
109.82250984119989
 11
171.85448615372343
 21
112.98232371859804
  0
LINE
  8
_1-0_
  6
CONTINUOUS
 62
    3
 10
165.35657507442505
 20
130.22447415308653
 11
166.526116574501
 21
127.62549883969855
  0
LINE
  8
_1-0_
  6
CONTINUOUS
 62
    3
 10
164.93709133963262
 20
130.03570605131989
 11
166.10663283970857
 21
127.43673073793191
  0
LINE
  8
_1-0_
  6
CONTINUOUS
 62
    3
 10
166.10663283970857
 20
127.43673073793191
 11
166.526116574501
 21
127.62549883969855
  0
LINE
  8
_1-0_
  6
CONTINUOUS
 62
    3
 10
172.62004333805456
 20
114.08346957520331
 11
171.45050183797863
 21
116.68244488859128
  0
LINE
  8
_1-0_
  6
CONTINUOUS
 62
    3
 10
172.20055960326212
 20
113.89470147343667
 11
171.0310181031862
 21
116.49367678682464
  0
LINE
  8
_1-0_
  6
CONTINUOUS
 62
    3
 10
171.0310181031862
 20
116.49367678682464
 11
171.45050183797863
 21
116.68244488859128
  0
ARC
  8
_1-0_
  6
CONTINUOUS
 62
    3
 10
157.28607278548344
 20
126.59274002127178
 40
0.69
 50
114.22779314987881
 51
204.22779314987881
  0
ARC
  8
_1-0_
  6
CONTINUOUS
 62
    3
 10
157.28607278548344
 20
126.59274002127178
 40
1.1500000000000001
 50
114.22779314987881
 51
204.22779314987881
  0
ARC
  8
_1-0_
  6
CONTINUOUS
 62
    3
 10
164.30786573744396
 20
129.75255389866993
 40
0.69
 50
24.227793149878803
 51
114.22779314987881
  0
ARC
  8
_1-0_
  6
CONTINUOUS
 62
    3
 10
164.30786573744396
 20
129.75255389866993
 40
1.1500000000000001
 50
24.227793149878803
 51
114.22779314987881
  0
ARC
  8
_1-0_
  6
CONTINUOUS
 62
    3
 10
164.54954104911295
 20
110.45173544338856
 40
0.69
 50
204.22779314987881
 51
294.22779314987878
  0
ARC
  8
_1-0_
  6
CONTINUOUS
 62
    3
 10
164.54954104911295
 20
110.45173544338856
 40
1.1500000000000001
 50
204.22779314987881
 51
294.22779314987878
  0
ARC
  8
_1-0_
  6
CONTINUOUS
 62
    3
 10
171.57133400107347
 20
113.61154932078671
 40
0.69
 50
294.22779314987883
 51
24.227793149878799
  0
ARC
  8
_1-0_
  6
CONTINUOUS
 62
    3
 10
171.57133400107347
 20
113.61154932078671
 40
1.1500000000000001
 50
294.22779314987883
 51
24.227793149878799
  0
LINE
  8
ADD_LINE
  6
DOT
 62
    4
 10
156.81415253106684
 20
127.64144935825288
 11
154.38807625086798
 21
126.5497125966814
  0
LINE
  8
ADD_LINE
  6
DOT
 62
    4
 10
156.23736344850235
 20
126.12081976685518
 11
155.42068127041375
 21
127.93566500287147
  0
LINE
  8
ADD_LINE
  6
DOT
 62
    4
 10
163.50083171213186
 20
109.97981518897195
 11
164.26614998971178
 21
108.27911169945435
  0
LINE
  8
ADD_LINE
  6
DOT
 62
    4
 10
165.02146130352958
 20
109.40302610640744
 11
163.48471263792749
 21
108.71148766417998
  0
LINE
  8
_1-0_
  6
CONTINUOUS
 62
    7
 10
278.76780045183455
 20
150.44287766681938
 11
280.27447208335593
 21
148.93620603529803
  0
LINE
  8
_1-0_
  6
CONTINUOUS
 62
    7
 10
278.76780045183381
 20
153.27130479156682
 11
281.08347139217187
 21
150.95563385122875
  0
LINE
  8
_1-0_
  6
CONTINUOUS
 62
    7
 10
278.76780045183403
 20
156.09973191631326
 11
282.07959650582359
 21
152.78793586232368
  0
LINE
  8
_1-0_
  6
CONTINUOUS
 62
    7
 10
278.76780045183432
 20
158.92815904105967
 11
282.07959650582387
 21
155.61636298707009
  0
LINE
  8
_1-0_
  6
CONTINUOUS
 62
    7
 10
278.76780045183449
 20
161.75658616580432
 11
282.07959650582364
 21
158.44479011181517
  0
LINE
  8
_1-0_
  6
CONTINUOUS
 62
    7
 10
278.76780045183386
 20
164.58501329055161
 11
282.07959650582347
 21
161.27321723656203
  0
LINE
  8
_1-0_
  6
CONTINUOUS
 62
    7
 10
278.76780045183409
 20
167.41344041529803
 11
282.0795965058237
 21
164.10164436130844
  0
LINE
  8
_1-0_
  6
CONTINUOUS
 62
    7
 10
278.76780045183438
 20
170.24186754004444
 11
282.07959650582393
 21
166.93007148605489
  0
LINE
  8
_1-0_
  6
CONTINUOUS
 62
    7
 10
278.76780045183392
 20
173.07029466478977
 11
282.07959650582353
 21
169.75849861080013
  0
LINE
  8
_1-0_
  6
CONTINUOUS
 62
    7
 10
278.76780045183398
 20
175.89872178953638
 11
282.07959650582353
 21
172.5869257355468
  0
LINE
  8
_1-0_
  6
CONTINUOUS
 62
    7
 10
278.7678004518342
 20
178.72714891428279
 11
282.07959650582376
 21
175.41535286029324
  0
LINE
  8
_1-0_
  6
CONTINUOUS
 62
    7
 10
278.76780045183443
 20
181.55557603902923
 11
282.07959650582347
 21
178.24377998504016
  0
LINE
  8
_1-0_
  6
CONTINUOUS
 62
    7
 10
278.76780045183381
 20
184.38400316377474
 11
282.07959650582347
 21
181.07220710978507
  0
LINE
  8
_1-0_
  6
CONTINUOUS
 62
    7
 10
278.76780045183403
 20
187.21243028852115
 11
282.07959650582359
 21
183.90063423453159
  0
LINE
  8
_1-0_
  6
CONTINUOUS
 62
    7
 10
281.28764491070081
 20
187.52101295440104
 11
282.07959650582387
 21
186.72906135927801
  0
LINE
  8
ADD_LINE
  6
DOT
 62
    4
 10
118.47609911146975
 20
76.338944193514038
 11
118.47609911146975
 21
38.863353536970067
  0
TEXT
  8
_1-b_
 62
    7
 10
157.83007811324859
 20
73.804174537244577
 40
2.5
 41
1
 50
0
  1
瓦桟　
  0
TEXT
  8
_1-b_
 62
    7
 10
157.83163698413119
 20
66.804176186843407
 40
2.5
 41
1
 50
0
  1
縦桟
  0
TEXT
  8
_1-b_
 62
    7
 10
157.83164110812828
 20
59.804177836442221
 40
2.5
 41
1
 50
0
  1
ルーフィング
  0
TEXT
  8
_1-b_
 62
    7
 10
166.17014913326494
 20
74.078762471572972
 40
2.5
 41
1
 50
0
  1
15×21　以上
  0
TEXT
  8
_1-b_
 62
    7
 10
186.35207000280849
 20
74.230506237509388
 40
2.5
 41
1
 50
0
  1
（防腐処理）
  0
TEXT
  8
_1-b_
 62
    7
 10
200.76772776676816
 20
74.685737535318651
 40
2.5
 41
1
 50
0
  1
※　地域により瓦桟木の大きさは、異なります
  0
LINE
  8
_1-4_
  6
CONTINUOUS
 62
    7
 10
155.39576968169905
 20
55.136371469202871
 11
146.18629045165858
 21
55.136371469202871
  0
LINE
  8
_1-4_
  6
CONTINUOUS
 62
    7
 10
155.39576968169905
 20
61.53676126940347
 11
147.90126972986673
 21
61.53676126940347
  0
LINE
  8
_1-4_
  6
CONTINUOUS
 62
    7
 10
155.39576968169905
 20
68.378571341194004
 11
149.73452721337014
 21
68.378571341194004
  0
LINE
  8
_1-4_
  6
CONTINUOUS
 62
    7
 10
151.47697843550276
 20
74.88148783190347
 11
155.39576968169905
 21
74.88148783190347
  0
LINE
  8
_1-b_
  6
CONTINUOUS
 62
    7
 10
220.74909814756882
 20
212.68383393179977
 11
239.04180986603384
 21
180.99995099328464
  0
LINE
  8
_1-b_
  6
CONTINUOUS
 62
    7
 10
220.74909814756882
 20
212.68383393179977
 11
216.45812165525567
 21
212.68383393179977
  0
LINE
  8
_1-b_
  6
CONTINUOUS
 62
    7
 10
239.04180986603384
 20
180.99995099328464
 11
254.92894537944247
 21
186.05018673813197
  0
TEXT
  8
_1-b_
 62
    7
 10
208.61599220378679
 20
211.64808098537935
 40
2.5
 41
1
 50
0
  1
葺き土
  0
TEXT
  8
_1-b_
 62
    7
 10
202.99333335179028
 20
204.84170448033089
 40
2.5
 41
1
 50
0
  1
桟瓦
  0
LINE
  8
_1-0_
  6
CONTINUOUS
 62
    3
 10
256.54872070452348
 20
171.26094185307113
 11
263.81217743691997
 21
155.11993427929778
  0
LINE
  8
_1-0_
  6
CONTINUOUS
 62
    3
 10
256.96820456457453
 20
171.4497096764857
 11
264.23166129697103
 21
155.30870210271237
  0
LINE
  8
_1-0_
  6
CONTINUOUS
 62
    3
 10
257.12551079611467
 20
172.78157106173518
 11
264.14730584479514
 21
175.9413802797618
  0
LINE
  8
_1-0_
  6
CONTINUOUS
 62
    3
 10
257.31427861952926
 20
172.36208720168415
 11
264.33607366820974
 21
175.52189641971077
  0
LINE
  8
_1-0_
  6
CONTINUOUS
 62
    3
 10
265.33280664558401
 20
154.54314418770664
 11
272.35460169426455
 21
157.70295340573327
  0
LINE
  8
_1-0_
  6
CONTINUOUS
 62
    3
 10
265.14403882216948
 20
154.96262804775768
 11
272.16583387084995
 21
158.1224372657843
  0
LINE
  8
_1-0_
  6
CONTINUOUS
 62
    3
 10
265.66793505345925
 20
175.36459018817064
 11
266.83747482896257
 21
172.76561409872397
  0
LINE
  8
_1-0_
  6
CONTINUOUS
 62
    3
 10
265.24845119340819
 20
175.17582236475607
 11
266.41799096891151
 21
172.57684627530938
  0
LINE
  8
_1-0_
  6
CONTINUOUS
 62
    3
 10
266.41799096891151
 20
172.57684627530938
 11
266.83747482896257
 21
172.76561409872397
  0
LINE
  8
_1-0_
  6
CONTINUOUS
 62
    3
 10
272.93139178585568
 20
159.22358261439732
 11
271.76185118962269
 21
161.82256052768685
  0
LINE
  8
_1-0_
  6
CONTINUOUS
 62
    3
 10
272.51190792580462
 20
159.03481479098272
 11
271.34236732957163
 21
161.63379270427228
  0
LINE
  8
_1-0_
  6
CONTINUOUS
 62
    3
 10
271.34236732957163
 20
161.63379270427228
 11
271.76185118962269
 21
161.82256052768685
  0
ARC
  8
_1-0_
  6
CONTINUOUS
 62
    3
 10
257.59743035465112
 20
171.73286141160759
 40
0.69
 50
114.22775513077387
 51
204.22775513077386
  0
ARC
  8
_1-0_
  6
CONTINUOUS
 62
    3
 10
257.59743035465112
 20
171.73286141160759
 40
1.1500000000000001
 50
114.22775513077387
 51
204.22775513077386
  0
ARC
  8
_1-0_
  6
CONTINUOUS
 62
    3
 10
264.6192254033316
 20
174.89267062963421
 40
0.69
 50
24.227755130773879
 51
114.22775513077387
  0
ARC
  8
_1-0_
  6
CONTINUOUS
 62
    3
 10
264.6192254033316
 20
174.89267062963421
 40
1.1500000000000001
 50
24.227755130773879
 51
114.22775513077387
  0
ARC
  8
_1-0_
  6
CONTINUOUS
 62
    3
 10
264.86088708704762
 20
155.59185383783424
 40
0.69
 50
204.22775513077386
 51
294.22775513077391
  0
ARC
  8
_1-0_
  6
CONTINUOUS
 62
    3
 10
264.86088708704762
 20
155.59185383783424
 40
1.1500000000000001
 50
204.22775513077386
 51
294.22775513077391
  0
ARC
  8
_1-0_
  6
CONTINUOUS
 62
    3
 10
271.88268213572809
 20
158.75166305586086
 40
0.69
 50
294.22775513077386
 51
24.227755130773872
  0
ARC
  8
_1-0_
  6
CONTINUOUS
 62
    3
 10
271.88268213572809
 20
158.75166305586086
 40
1.1500000000000001
 50
294.22775513077386
 51
24.227755130773872
  0
TEXT
  8
_1-b_
 62
    7
 10
158.27459963061557
 20
54.016795452837911
 40
2.5
 41
1
 50
0
  1
野地板　硬質木片セメント板　ｔ＝25
  0
TEXT
  8
_1-b_
 62
    7
 10
157.34168664926176
 20
47.619174642373622
 40
2.5
 41
1
 50
0
  1
垂木
  0
TEXT
  8
_1-b_
 62
    7
 10
171.49648664926178
 20
47.619174642373622
 40
2.5
 41
1
 50
0
  1
Ｃ－100ｘ50ｘ20ｘ3.2
  0
TEXT
  8
_1-b_
 62
    7
 10
199.22368664926179
 20
47.619174642373622
 40
2.5
 41
1
 50
0
  1
＠606
  0
LINE
  8
_1-b_
  6
CONTINUOUS
 62
    7
 10
155.50263946354488
 20
49.015858950331804
 11
144.5463040649625
 21
49.015858950331804
  0
LINE
  8
_1-b_
  6
CONTINUOUS
 62
    7
 10
168.76871880199667
 20
139.41514143094841
 11
144.5463040649625
 21
49.015858950331804
  0
ENDSEC
  0
EOF
