  0
SECTION
  2
HEADER
  9
$ACADVER
  1
AC1009
  9
$INSBASE
 10
0
 20
0
 30
0
  9
$EXTMIN
 10
0
 20
0
  9
$EXTMAX
 10
420
 20
297
  9
$LIMMIN
 10
0
 20
0
  9
$LIMMAX
 10
420
 20
297
  9
$LTSCALE
 40
1
  0
ENDSEC
  0
SECTION
  2
TABLES
  0
TABLE
  2
LTYPE
 70
     9
  0
LTYPE
  2
CONTINUOUS
 70
    64
  3
実線
 72
    65
 73
     0
 40
0.0
  0
LTYPE
  2
DASHED1
 70
    64
  3
--  --  --  --  --  --  --  --  
 72
    65
 73
     2
 40
2.5
 49
1.25
 49
-1.25
  0
LTYPE
  2
DASHED2
 70
    64
  3
----    ----    ----    ----    
 72
    65
 73
     2
 40
5.0
 49
2.5
 49
-2.5
  0
LTYPE
  2
DASHED3
 70
    64
  3
------  ------  ------  ------  
 72
    65
 73
     2
 40
5.0
 49
3.75
 49
-1.25
  0
LTYPE
  2
CENTER1
 70
    64
  3
----- - ----- - ----- - ----- - 
 72
    65
 73
     4
 40
10.0
 49
6.25
 49
-1.25
 49
1.25
 49
-1.25
  0
LTYPE
  2
CENTER2
 70
    64
  3
----------  --  ----------  --  
 72
    65
 73
     4
 40
20.0
 49
12.5
 49
-2.5
 49
2.5
 49
-2.5
  0
LTYPE
  2
PHANTOM1
 70
    64
  3
--- - - --- - - --- - - --- - - 
 72
    65
 73
     6
 40
10.0
 49
3.25
 49
-1.25
 49
1.25
 49
-1.25
 49
1.25
 49
-1.25
  0
LTYPE
  2
PHANTOM2
 70
    64
  3
--------  -  -  --------  -  -  
 72
    65
 73
     6
 40
20.0
 49
10.0
 49
-2.5
 49
1.25
 49
-2.5
 49
1.25
 49
-2.5
  0
LTYPE
  2
DOT
 70
    64
  3
-   -   -   -   -   -   -   -   
 72
    65
 73
     2
 40
2.5
 49
0.625
 49
-1.875
  0
LTYPE
  2
DUMMY
 70
    64
  3
ダミー
 72
    65
 73
     0
 40
0.0
  0
LTYPE
  2
RAND1
 70
    64
  3
ランダム線1
 72
    65
 73
     4
 40
10.0
 49
1.0
 49
-2.0
 49
3.0
 49
-4.0
  0
LTYPE
  2
RAND2
 70
    64
  3
ランダム線2
 72
    65
 73
     4
 40
14.0
 49
2.0
 49
-3.0
 49
4.0
 49
-5.0
  0
LTYPE
  2
RAND3
 70
    64
  3
ランダム線3
 72
    65
 73
     4
 40
18.0
 49
3.0
 49
-4.0
 49
5.0
 49
-6.0
  0
LTYPE
  2
RAND4
 70
    64
  3
ランダム線4
 72
    65
 73
     4
 40
22.0
 49
4.0
 49
-5.0
 49
6.0
 49
-7.0
  0
LTYPE
  2
RAND5
 70
    64
  3
ランダム線5
 72
    65
 73
     4
 40
26.0
 49
5.0
 49
-6.0
 49
7.0
 49
-8.0
  0
LTYPE
  2
LONG1
 70
    64
  3
----------  --  ----------  --  
 72
    65
 73
     4
 40
40.0
 49
32.5
 49
-2.5
 49
2.5
 49
-2.5
  0
LTYPE
  2
LONG2
 70
    64
  3
--------  -  -  --------  -  -  
 72
    65
 73
     6
 40
40.0
 49
30.0
 49
-2.5
 49
1.25
 49
-2.5
 49
1.25
 49
-2.5
  0
LTYPE
  2
LONG3
 70
    64
  3
+++++++++++++++..+++++++++++++++
 72
    65
 73
     2
 40
40.0
 49
37.5
 49
-2.5
  0
LTYPE
  2
LONG4
 70
    64
  3
+++++++++++++++..+++++++++++++++
 72
    65
 73
     2
 40
80.0
 49
75.0
 49
-5.0
  0
LTYPE
  2
LONG5
 70
    64
  3
----------  --  ----------  --  
 72
    65
 73
     4
 40
60.0
 49
37.5
 49
-7.5
 49
7.5
 49
-7.5
  0
LTYPE
  2
dashed
 70
   64
  3
-------   -------------   ------
 72
   65
 73
    2
 40
7.5
 49
6
 49
-1.5
  0
LTYPE
  2
dashed_spaced
 70
   64
  3
----        --------        ----
 72
   65
 73
    2
 40
12
 49
6
 49
-6
  0
LTYPE
  2
long_dashed_dotted
 70
   64
  3
------------- --- --------------
 72
   65
 73
    4
 40
15.25
 49
12
 49
-1.5
 49
0.25
 49
-1.5
  0
LTYPE
  2
long_dashed_double-dotted
 70
   64
  3
----------- --- --- ------------
 72
   65
 73
    6
 40
17
 49
12
 49
-1.5
 49
0.25
 49
-1.5
 49
0.25
 49
-1.5
  0
LTYPE
  2
long_dashed_triplicate-dotted
 70
   64
  3
--------- --- --- --- ----------
 72
   65
 73
    8
 40
18.75
 49
12
 49
-1.5
 49
0.25
 49
-1.5
 49
0.25
 49
-1.5
 49
0.25
 49
-1.5
  0
LTYPE
  2
dotted
 70
   64
  3
   -       -       -       -    
 72
   65
 73
    2
 40
1.75
 49
0.25
 49
-1.5
  0
LTYPE
  2
chain
 70
   64
  3
-------------- -- --------------
 72
   65
 73
    4
 40
18.5
 49
12
 49
-1.5
 49
3.5
 49
-1.5
  0
LTYPE
  2
chain_double_dash
 70
   64
  3
------------ -- -- -------------
 72
   65
 73
    6
 40
23.5
 49
12
 49
-1.5
 49
3.5
 49
-1.5
 49
3.5
 49
-1.5
  0
LTYPE
  2
dashed_dotted
 70
   64
  3
-----------     -     ----------
 72
   65
 73
    4
 40
9.25
 49
6
 49
-1.5
 49
0.25
 49
-1.5
  0
LTYPE
  2
double-dashed_dotted
 70
   64
  3
------   -----------   -   -----
 72
   65
 73
    6
 40
16.75
 49
6
 49
-1.5
 49
6
 49
-1.5
 49
0.25
 49
-1.5
  0
LTYPE
  2
dashed_double-dotted
 70
   64
  3
---------    -    -    ---------
 72
   65
 73
    6
 40
11
 49
6
 49
-1.5
 49
0.25
 49
-1.5
 49
0.25
 49
-1.5
  0
LTYPE
  2
double-dashed_double-dotted
 70
   64
  3
-----   ---------   -   -   ----
 72
   65
 73
    8
 40
18.5
 49
6
 49
-1.5
 49
6
 49
-1.5
 49
0.25
 49
-1.5
 49
0.25
 49
-1.5
  0
LTYPE
  2
dashed_triplicate-dotted
 70
   64
  3
-------    -    -    -    ------
 72
   65
 73
    8
 40
12.75
 49
6
 49
-1.5
 49
0.25
 49
-1.5
 49
0.25
 49
-1.5
 49
0.25
 49
-1.5
  0
LTYPE
  2
double-dashed_triplicate-dotted
 70
   64
  3
-----  ---------  -  -  -  -----
 72
   65
 73
   10
 40
20.25
 49
6
 49
-1.5
 49
6
 49
-1.5
 49
0.25
 49
-1.5
 49
0.25
 49
-1.5
 49
0.25
 49
-1.5
  0
LTYPE
  2
undefined
 70
   64
  3
--------------------------------
 72
   65
 73
    0
 40
0
  0
ENDTAB
  0
TABLE
  2
STYLE
  5
3
100
AcDbSymbolTable
 70
     1
  0
STYLE
  5
10
100
AcDbSymbolTableRecord
100
AcDbTextStyleTableRecord
  2
STANDARD
 70
     0
 40
0.0
 41
1.0
 50
0.0
 71
     0
 42
0.2
  3
txt
  4
bigfont.shx
  0
STYLE
  5
26
100
AcDbSymbolTableRecord
100
AcDbTextStyleTableRecord
  2
TATEGAKI
 70
    68
 40
0.0
 41
1.0
 50
0.0
 71
     0
 42
1.0
  3
txt
  4
bigfont.shx
  0
ENDTAB
  0
TABLE
  2
LAYER
 70
   12
  0
LAYER
  2
_0-0_
 70
   64
 62
    7
  6
CONTINUOUS
  0
LAYER
  2
_1-0_
 70
   64
 62
    7
  6
CONTINUOUS
  0
LAYER
  2
_1-1_
 70
   64
 62
    7
  6
CONTINUOUS
  0
LAYER
  2
_1-2_
 70
   64
 62
    7
  6
CONTINUOUS
  0
LAYER
  2
_1-3_
 70
   64
 62
    7
  6
CONTINUOUS
  0
LAYER
  2
_1-4_
 70
   64
 62
    7
  6
CONTINUOUS
  0
LAYER
  2
_1-5_
 70
   64
 62
    7
  6
CONTINUOUS
  0
LAYER
  2
_1-6_
 70
   64
 62
    7
  6
CONTINUOUS
  0
LAYER
  2
_1-7_
 70
   64
 62
    7
  6
CONTINUOUS
  0
LAYER
  2
_1-b_
 70
   64
 62
    7
  6
CONTINUOUS
  0
LAYER
  2
_1-c_
 70
   64
 62
    7
  6
CONTINUOUS
  0
LAYER
  2
ADD_LINE
 70
   64
 62
    7
  6
CONTINUOUS
  0
ENDTAB
  0
ENDSEC
  0
SECTION
  2
BLOCKS
  0
ENDSEC
  0
SECTION
  2
ENTITIES
  0
ARC
  8
_1-2_
  6
CONTINUOUS
 62
    3
 10
241.46155280035896
 20
136.33382436391472
 40
41.612016832506335
 50
110.20721435546875
 51
139.72186279296875
  0
ARC
  8
_1-2_
  6
CONTINUOUS
 62
    6
 10
191.47671661483105
 20
155.03541818800369
 40
26.624738931246998
 50
350.65464432949773
 51
16.86485499100073
  0
ARC
  8
_1-2_
  6
CONTINUOUS
 62
    3
 10
241.21423669763516
 20
128.94966331688133
 40
41.612016832506335
 50
110.20719909667969
 51
139.72184753417969
  0
LINE
  8
_1-2_
  6
CONTINUOUS
 62
    3
 10
207.60255555848818
 20
160.91940802496833
 11
209.46780642947635
 21
155.8517785974451
  0
LINE
  8
_0-0_
  6
CONTINUOUS
 62
    5
 10
6.7567526327597136
 20
280.13513513513516
 11
406.75677325274495
 21
280.13513513513516
  0
LINE
  8
_0-0_
  6
CONTINUOUS
 62
    5
 10
406.75677325274495
 20
10.13513513513513
 11
6.7567526327597136
 21
10.13513513513513
  0
LINE
  8
_0-0_
  6
CONTINUOUS
 62
    5
 10
406.75677325274495
 20
30.135133073136615
 11
6.7567402607685949
 21
30.135133073136615
  0
LINE
  8
_0-0_
  6
CONTINUOUS
 62
    5
 10
371.75678150073907
 20
10.13513513513513
 11
371.75678150073907
 21
30.135133073136615
  0
LINE
  8
_0-0_
  6
CONTINUOUS
 62
    5
 10
137.02703939901818
 20
30.135133073136615
 11
137.02703939901818
 21
10.13513513513513
  0
LINE
  8
_0-0_
  6
CONTINUOUS
 62
    5
 10
214.86486486486487
 20
30.135133073136615
 11
214.86486486486487
 21
10.13513513513513
  0
LINE
  8
_0-0_
  6
CONTINUOUS
 62
    5
 10
137.02703939901818
 20
20.135134104135886
 11
214.86486486486487
 21
20.135134104135886
  0
LINE
  8
_0-0_
  6
CONTINUOUS
 62
    5
 10
396.48648648648651
 20
25.945945945945951
 11
383.91891891891896
 21
13.378379924877265
  0
LINE
  8
_1-0_
  6
CONTINUOUS
 62
    7
 10
103.98500184755068
 20
74.006628088048984
 11
235.13513513513516
 21
133.02419301625847
  0
LINE
  8
_1-2_
  6
CONTINUOUS
 62
    3
 10
226.84075432854732
 20
168.00044291728253
 11
225.59727024387669
 21
171.37886253563136
  0
LINE
  8
_1-2_
  6
CONTINUOUS
 62
    3
 10
207.84987166121201
 20
168.30356907200169
 11
209.71512253220018
 21
163.23593964447846
  0
LINE
  8
_1-2_
  6
CONTINUOUS
 62
    3
 10
227.08807043127112
 20
175.38460396431589
 11
225.84458634660052
 21
178.76302358266472
  0
LINE
  8
_1-3_
  6
CONTINUOUS
 62
    7
 10
213.92694421716641
 20
173.37418014938768
 11
212.58530075485643
 21
176.05745470201649
  0
LINE
  8
_1-3_
  6
CONTINUOUS
 62
    7
 10
212.58530075485643
 20
176.05745470201649
 11
228.68499755859375
 21
184.10730310388516
  0
LINE
  8
_1-3_
  6
CONTINUOUS
 62
    7
 10
228.68499755859375
 20
184.10730310388516
 11
230.02664102090372
 21
181.42402855125636
  0
LINE
  8
_1-3_
  6
CONTINUOUS
 62
    7
 10
230.02664102090372
 20
181.42402855125636
 11
213.92694421716641
 21
173.37418014938768
  0
LINE
  8
_1-3_
  6
CONTINUOUS
 62
    7
 10
212.58530075485643
 20
176.05745470201649
 11
230.02664102090372
 21
181.42402855125636
  0
LINE
  8
_1-3_
  6
CONTINUOUS
 62
    3
 10
211.50861585462417
 20
176.35244008657097
 11
212.11145349451016
 21
172.2831561114337
  0
LINE
  8
_1-3_
  6
CONTINUOUS
 62
    3
 10
212.11145349451016
 20
172.2831561114337
 11
212.71431587837839
 21
173.48886850717906
  0
LINE
  8
_1-3_
  6
CONTINUOUS
 62
    3
 10
211.50861585462417
 20
176.35244008657097
 11
233.45261857316302
 21
187.32444144584039
  0
LINE
  8
_1-3_
  6
CONTINUOUS
 62
    3
 10
233.45261857316302
 20
187.32444144584039
 11
234.25630311708193
 21
187.72628371779984
  0
LINE
  8
_1-3_
  6
CONTINUOUS
 62
    3
 10
234.25630311708193
 20
187.72628371779984
 11
234.25630311708193
 21
217.32444144584039
  0
LINE
  8
_1-3_
  6
CONTINUOUS
 62
    7
 10
229.65629783836573
 20
186.85289537584461
 11
227.25630476668076
 21
186.85289537584461
  0
LINE
  8
_1-3_
  6
CONTINUOUS
 62
    7
 10
229.65629783836573
 20
191.21058283625425
 11
229.65629783836573
 21
199.21058448585305
  0
LINE
  8
_1-3_
  6
CONTINUOUS
 62
    7
 10
229.65629783836573
 20
199.21058448585305
 11
233.65631103515625
 21
199.21058448585305
  0
LINE
  8
_1-3_
  6
CONTINUOUS
 62
    7
 10
233.65631103515625
 20
199.21058448585305
 11
233.65631103515625
 21
191.21058283625425
  0
LINE
  8
_1-3_
  6
CONTINUOUS
 62
    7
 10
233.65631103515625
 20
191.21058283625425
 11
229.65629783836573
 21
191.21058283625425
  0
LINE
  8
_1-3_
  6
CONTINUOUS
 62
    7
 10
233.65631103515625
 20
199.21058448585305
 11
229.65629783836573
 21
191.21058283625425
  0
LINE
  8
_1-2_
  6
CONTINUOUS
 62
    7
 10
223.13514503272805
 20
127.62419004698059
 11
235.13513513513516
 21
127.62419004698059
  0
LINE
  8
_1-2_
  6
CONTINUOUS
 62
    7
 10
223.13514503272805
 20
106.62419499577703
 11
235.13513513513516
 21
106.62419499577703
  0
LINE
  8
_1-2_
  6
CONTINUOUS
 62
    7
 10
223.13514503272805
 20
127.62419004698059
 11
223.13514503272805
 21
106.62419499577703
  0
LINE
  8
_1-2_
  6
CONTINUOUS
 62
    7
 10
235.13513513513516
 20
127.62419004698059
 11
223.13514503272805
 21
106.62419499577703
  0
LINE
  8
_1-0_
  6
CONTINUOUS
 62
    7
 10
235.13513513513516
 20
233.22472649651607
 11
235.13513513513516
 21
66.486486486486484
  0
LINE
  8
_1-3_
  6
CONTINUOUS
 62
    7
 10
229.65629783836573
 20
186.85289537584461
 11
229.65629783836573
 21
233.22472649651607
  0
LINE
  8
_1-3_
  6
CONTINUOUS
 62
    7
 10
227.25630476668076
 20
186.85289537584461
 11
227.25630476668076
 21
233.22472649651607
  0
LINE
  8
_1-2_
  6
CONTINUOUS
 62
    7
 10
86.033601503114454
 20
152.73297284100508
 11
121.06129414326436
 21
152.73297284100508
  0
LINE
  8
_1-2_
  6
CONTINUOUS
 62
    7
 10
111.81362667599241
 20
165.14556884765625
 11
116.54347600163641
 21
165.14556884765625
  0
LINE
  8
_1-2_
  6
CONTINUOUS
 62
    7
 10
81.641445675411745
 20
159.41668123812289
 11
118.62862664300043
 21
159.41668123812289
  0
LINE
  8
_1-2_
  6
CONTINUOUS
 62
    7
 10
65.791502256651199
 20
172.59313634923987
 11
113.83278511665964
 21
172.59313634923987
  0
LINE
  8
_1-2_
  6
CONTINUOUS
 62
    7
 10
98.63717156487543
 20
179.08588306323904
 11
111.46962346257391
 21
179.08588306323904
  0
LINE
  8
_1-2_
  6
CONTINUOUS
 62
    7
 10
142.10163425754857
 20
94.925128833667657
 11
111.46962346257391
 21
179.08588306323904
  0
LINE
  8
_1-2_
  6
CONTINUOUS
 62
    7
 10
64.531464447846304
 20
184.38980514938768
 11
109.53915982633025
 21
184.38980514938768
  0
LINE
  8
_1-2_
  6
CONTINUOUS
 62
    7
 10
111.46962346257391
 20
179.08588306323904
 11
109.53915982633025
 21
184.38980514938768
  0
LINE
  8
_1-2_
  6
CONTINUOUS
 62
    7
 10
225.30680063608531
 20
181.33439347550677
 11
206.22943775073904
 21
233.74902673669766
  0
LINE
  8
_1-2_
  6
CONTINUOUS
 62
    7
 10
211.91124993401607
 20
173.63456107474664
 11
196.60123258023648
 21
215.69848962732266
  0
LINE
  8
_1-2_
  6
CONTINUOUS
 62
    7
 10
209.60085482210727
 20
166.71161548511404
 11
198.75240016627959
 21
196.51751131624789
  0
LINE
  8
_1-2_
  6
CONTINUOUS
 62
    7
 10
198.75240016627959
 20
196.51751131624789
 11
210.68402264569258
 21
158.58785680822425
  0
LINE
  8
_1-2_
  6
CONTINUOUS
 62
    7
 10
205.8097674395587
 20
150.46409813133448
 11
195.50780837600297
 21
178.76850437473607
  0
LINE
  8
_1-2_
  6
CONTINUOUS
 62
    7
 10
205.8097674395587
 20
150.46409813133448
 11
218.53699555268159
 21
155.87993724926099
  0
LINE
  8
_1-2_
  6
CONTINUOUS
 62
    7
 10
206.22943775073904
 20
233.74902673669766
 11
199.85761487806167
 21
233.74902673669766
  0
LINE
  8
_1-2_
  6
CONTINUOUS
 62
    7
 10
196.60123258023648
 20
215.69848962732266
 11
192.55669258736276
 21
215.69848962732266
  0
LINE
  8
_1-2_
  6
CONTINUOUS
 62
    7
 10
198.75240016627959
 20
196.51751131624789
 11
195.47706397804055
 21
196.51751131624789
  0
LINE
  8
_1-2_
  6
CONTINUOUS
 62
    7
 10
195.50780837600297
 20
178.76850437473607
 11
191.09651307801943
 21
178.76850437473607
  0
LINE
  8
_1-2_
  6
CONTINUOUS
 62
    7
 10
258.30742913323479
 20
187.72628371779984
 11
258.30742913323479
 21
217.32444144584039
  0
LINE
  8
_1-2_
  6
CONTINUOUS
 62
    7
 10
241.38368348817568
 20
187.72628371779984
 11
258.30742913323479
 21
187.72628371779984
  0
LINE
  8
_1-2_
  6
CONTINUOUS
 62
    7
 10
241.38368348817568
 20
217.32444144584039
 11
258.30742913323479
 21
217.32444144584039
  0
LINE
  8
_1-3_
  6
DASHED1
 62
    3
 10
234.52294426995357
 20
150.07477631440034
 11
234.52294426995357
 21
227.32444969383448
  0
LINE
  8
_1-2_
  6
CONTINUOUS
 62
    7
 10
258.30742913323479
 20
217.32444144584039
 11
241.38368348817568
 21
217.32444144584039
  0
LINE
  8
_1-2_
  6
CONTINUOUS
 62
    7
 10
258.30742913323479
 20
227.32444969383448
 11
241.38368348817568
 21
227.32444969383448
  0
LINE
  8
_1-2_
  6
CONTINUOUS
 62
    7
 10
258.30742913323479
 20
217.32444144584039
 11
258.30742913323479
 21
227.32444969383448
  0
LINE
  8
_1-2_
  6
CONTINUOUS
 62
    7
 10
277.06354089685391
 20
227.32444969383448
 11
241.38368348817568
 21
227.32444969383448
  0
LINE
  8
_1-2_
  6
CONTINUOUS
 62
    7
 10
277.06354089685391
 20
150.07477631440034
 11
241.38368348817568
 21
150.07477631440034
  0
LINE
  8
_1-2_
  6
CONTINUOUS
 62
    7
 10
277.06354089685391
 20
227.32444969383448
 11
277.06354089685391
 21
150.07477631440034
  0
ARC
  8
_1-2_
  6
CONTINUOUS
 62
    3
 10
246.62760141733531
 20
122.29836953652872
 40
60.168024011560391
 50
110.20721435546875
 51
130.12750244140625
  0
TEXT
  8
_0-0_
 62
    7
 10
141.89189395389042
 20
14.594594594594582
 40
2.5
 41
1
 50
0
  1
縮尺
  0
TEXT
  8
_0-0_
 62
    7
 10
377.10214563318203
 20
22.865493362014362
 40
2.5
 41
1
 50
0
  1
ＮＯ
  0
TEXT
  8
_0-0_
 62
    7
 10
14.594594336844779
 20
24.324324324324323
 40
2.5
 41
1
 50
0
  1
和形
  0
TEXT
  8
_0-0_
 62
    7
 10
25.556194717819636
 20
20.211577544341225
 40
2.5
 41
1
 50
0
  1
木造
  0
TEXT
  8
_0-0_
 62
    7
 10
383.23801896378802
 20
18.523427086907475
 40
3
 41
1
 50
0
  1
Ｊ
  0
TEXT
  8
_1-0_
 62
    7
 10
169.90681828679266
 20
13.3181144095756
 40
2.5
 41
1
 50
0
  1
1/5
  0
TEXT
  8
_1-2_
 62
    7
 10
257.80742748363599
 20
200.6503625818201
 40
2.5
 41
1
 50
90
  1
150
  0
TEXT
  8
_1-6_
 62
    7
 10
177.55662041741448
 20
231.8918918918919
 40
2.5
 41
1
 50
0
  1
雨押え板　15ｘ90
  0
TEXT
  8
_1-6_
 62
    7
 10
186.1358642578125
 20
194.59459459459461
 40
2.5
 41
1
 50
0
  1
のし瓦
  0
TEXT
  8
_1-6_
 62
    7
 10
39.721904445338907
 20
15.395235628695104
 40
2.5
 41
1
 50
0
  1
壁際　　5
  0
TEXT
  8
_1-2_
 62
    7
 10
257.80742748363599
 20
221.07444556983745
 40
2.5
 41
1
 50
90
  1
50
  0
TEXT
  8
_1-2_
 62
    7
 10
276.56353924725511
 20
183.69960681812185
 40
2.5
 41
1
 50
90
  1
300 以上
  0
TEXT
  8
_1-2_
 62
    7
 10
280.25113574878594
 20
224.30447140255492
 40
3
 41
1
 50
0
  1
下葺き材立上げ長さは、300ｍｍ以上かつ
  0
TEXT
  8
_1-2_
 62
    7
 10
280.63775882205448
 20
218.65739977037586
 40
3
 41
1
 50
0
  1
雨押え板上端より50mm以上とする
  0
POINT
  8
_1-2_
 62
    7
 10
258.30742913323479
 20
187.72628371779984
  0
POINT
  8
_1-2_
 62
    7
 10
258.30742913323479
 20
217.32444144584039
  0
POINT
  8
_1-2_
 62
    7
 10
258.30742913323479
 20
217.32444144584039
  0
POINT
  8
_1-2_
 62
    7
 10
258.30742913323479
 20
227.32444969383448
  0
POINT
  8
_1-2_
 62
    7
 10
277.06354089685391
 20
227.32444969383448
  0
POINT
  8
_1-2_
 62
    7
 10
277.06354089685391
 20
150.07477631440034
  0
TEXT
  8
_1-6_
 62
    7
 10
394.56276970940667
 20
15.639418524664791
 40
2.5
 41
1
 50
0
  1
11
  0
LINE
  8
_1-1_
  6
CONTINUOUS
 62
    7
 10
101.44937424789838
 20
94.358671334000491
 11
102.6804739694461
 21
91.622902422999658
  0
LINE
  8
_1-1_
  6
CONTINUOUS
 62
    7
 10
141.16356475676662
 20
108.94028770989789
 11
139.93245266322776
 21
111.67605662089872
  0
LINE
  8
_1-1_
  6
CONTINUOUS
 62
    7
 10
139.93245266322776
 20
111.67605662089872
 11
144.30968786962558
 21
113.64581370097684
  0
LINE
  8
_1-1_
  6
CONTINUOUS
 62
    7
 10
144.30968786962558
 20
113.64581370097684
 11
145.54077521918214
 21
110.91004478997601
  0
LINE
  8
_1-1_
  6
CONTINUOUS
 62
    7
 10
145.54077521918214
 20
110.91004478997601
 11
141.16356475676662
 21
108.94028770989789
  0
LINE
  8
_1-1_
  6
CONTINUOUS
 62
    7
 10
184.02387837849383
 20
128.22743007687424
 11
182.79276628495498
 21
130.96319898787507
  0
LINE
  8
_1-1_
  6
CONTINUOUS
 62
    7
 10
182.79276628495498
 20
130.96319898787507
 11
187.17000149135279
 21
132.9329560679532
  0
LINE
  8
_1-1_
  6
CONTINUOUS
 62
    7
 10
187.17000149135279
 20
132.9329560679532
 11
188.40108884090938
 21
130.19718715695237
  0
LINE
  8
_1-1_
  6
CONTINUOUS
 62
    7
 10
188.40108884090938
 20
130.19718715695237
 11
184.02387837849383
 21
128.22743007687424
  0
LINE
  8
_1-1_
  6
CONTINUOUS
 62
    7
 10
226.88419200022102
 20
147.51459718783286
 11
225.65307990668217
 21
150.25034135485143
  0
LINE
  8
_1-1_
  6
CONTINUOUS
 62
    7
 10
230.03031511307998
 20
152.2201108069207
 11
231.26140246263657
 21
149.48434189591984
  0
LINE
  8
_1-1_
  6
CONTINUOUS
 62
    7
 10
225.65307990668217
 20
150.25034135485143
 11
231.26142720661883
 21
149.48431715193757
  0
LINE
  8
_1-1_
  6
CONTINUOUS
 62
    7
 10
182.79276628495498
 20
130.96319898787507
 11
188.40108884090938
 21
130.19718715695237
  0
LINE
  8
_1-1_
  6
CONTINUOUS
 62
    7
 10
139.93245266322776
 20
111.67605662089872
 11
145.54077521918214
 21
110.91004478997601
  0
LINE
  8
ADD_LINE
  6
DOT
 62
    3
 10
102.34926339485783
 20
97.702486493153799
 11
99.231855673415694
 21
104.6300715794608
  0
LINE
  8
_1-b_
  6
CONTINUOUS
 62
    3
 10
102.31806123322355
 20
92.576189083683772
 11
104.00727104239795
 21
93.197931126019085
  0
LINE
  8
_1-b_
  6
CONTINUOUS
 62
    3
 10
101.62722162041737
 20
94.453081998326923
 11
102.31806123322355
 21
92.576189083683772
  0
LINE
  8
ADD_LINE
  6
DOT
 62
    3
 10
101.44937424789838
 20
94.358683705991638
 11
101.44937424789838
 21
93.975646860552445
  0
LINE
  8
_1-1_
  6
CONTINUOUS
 62
    7
 10
141.16356475676662
 20
108.94028770989789
 11
139.93247740721006
 21
111.67605662089872
  0
LINE
  8
_1-1_
  6
CONTINUOUS
 62
    7
 10
139.93247740721006
 20
111.67605662089872
 11
144.30968786962558
 21
113.64581370097684
  0
LINE
  8
_1-1_
  6
CONTINUOUS
 62
    7
 10
144.30968786962558
 20
113.64581370097684
 11
145.54079996316443
 21
110.91004478997601
  0
LINE
  8
_1-1_
  6
CONTINUOUS
 62
    7
 10
145.54079996316443
 20
110.91004478997601
 11
141.16356475676662
 21
108.94028770989789
  0
LINE
  8
_1-1_
  6
CONTINUOUS
 62
    7
 10
139.93247740721006
 20
111.67605662089872
 11
145.54079996316443
 21
110.91004478997601
  0
LINE
  8
_1-b_
  6
CONTINUOUS
 62
    3
 10
145.17837485495073
 20
111.86333145066013
 11
146.86757229213401
 21
112.48507349299544
  0
LINE
  8
_1-b_
  6
CONTINUOUS
 62
    3
 10
144.48754761413574
 20
113.74022436530328
 11
145.17837485495073
 21
111.86333145066013
  0
LINE
  8
ADD_LINE
  6
DOT
 62
    3
 10
144.30968786962558
 20
113.64582607296799
 11
144.30968786962558
 21
114.10461662010692
  0
LINE
  8
ADD_LINE
  6
DOT
 62
    3
 10
144.30968786962558
 20
113.64582607296799
 11
144.30968786962558
 21
113.2627892275288
  0
LINE
  8
_1-1_
  6
CONTINUOUS
 62
    7
 10
139.93247740721006
 20
111.67606899288987
 11
144.30968786962558
 21
113.64582607296799
  0
LINE
  8
_1-1_
  6
CONTINUOUS
 62
    7
 10
184.02387837849383
 20
128.22743007687424
 11
182.79276628495498
 21
130.96319898787507
  0
LINE
  8
_1-1_
  6
CONTINUOUS
 62
    7
 10
182.79276628495498
 20
130.96319898787507
 11
187.17000149135279
 21
132.9329560679532
  0
LINE
  8
_1-1_
  6
CONTINUOUS
 62
    7
 10
187.17000149135279
 20
132.9329560679532
 11
188.40108884090938
 21
130.19718715695237
  0
LINE
  8
_1-1_
  6
CONTINUOUS
 62
    7
 10
188.40108884090938
 20
130.19718715695237
 11
184.02387837849383
 21
128.22743007687424
  0
LINE
  8
_1-1_
  6
CONTINUOUS
 62
    7
 10
182.79276628495498
 20
130.96319898787507
 11
188.40108884090938
 21
130.19718715695237
  0
LINE
  8
_1-b_
  6
CONTINUOUS
 62
    3
 10
131.65371005343047
 20
112.52796718624924
 11
187.34783649188066
 21
133.02736673227963
  0
LINE
  8
_1-b_
  6
CONTINUOUS
 62
    3
 10
188.03868847667795
 20
131.15047381763648
 11
189.72791065784349
 21
131.77221585997179
  0
LINE
  8
_1-b_
  6
CONTINUOUS
 62
    3
 10
187.34783649188066
 20
133.02736673227963
 11
188.03868847667795
 21
131.15047381763648
  0
LINE
  8
_1-b_
  6
CONTINUOUS
 62
    3
 10
132.36999885199467
 20
115.77525607059255
 11
186.56837630659771
 21
135.72411438325094
  0
LINE
  8
_1-b_
  6
CONTINUOUS
 62
    3
 10
131.42114136413571
 20
113.72106015104018
 11
131.83847336899214
 21
112.58721665177922
  0
LINE
  8
_1-1_
  6
CONTINUOUS
 62
    7
 10
182.79276628495498
 20
130.96319898787507
 11
187.17000149135279
 21
132.9329560679532
  0
LINE
  8
_1-1_
  6
CONTINUOUS
 62
    7
 10
187.17000149135279
 20
132.9329560679532
 11
188.40108884090938
 21
130.19718715695237
  0
LINE
  8
_1-1_
  6
CONTINUOUS
 62
    7
 10
226.88419200022102
 20
147.5145724438506
 11
225.65307990668217
 21
150.25034135485143
  0
LINE
  8
_1-1_
  6
CONTINUOUS
 62
    7
 10
225.65307990668217
 20
150.25034135485143
 11
230.03031511307998
 21
152.2201108069207
  0
LINE
  8
_1-1_
  6
CONTINUOUS
 62
    7
 10
230.03031511307998
 20
152.2201108069207
 11
231.26140246263657
 21
149.48431715193757
  0
LINE
  8
_1-1_
  6
CONTINUOUS
 62
    7
 10
231.26140246263657
 20
149.48431715193757
 11
226.88419200022102
 21
147.5145724438506
  0
LINE
  8
_1-1_
  6
CONTINUOUS
 62
    7
 10
225.65307990668217
 20
150.25034135485143
 11
231.26140246263657
 21
149.48431715193757
  0
LINE
  8
_1-1_
  6
CONTINUOUS
 62
    7
 10
182.79276628495498
 20
130.96319898787507
 11
188.40108884090938
 21
130.19718715695237
  0
LINE
  8
_1-1_
  6
CONTINUOUS
 62
    7
 10
182.79279102893724
 20
130.96319898787507
 11
187.17000149135279
 21
132.9329560679532
  0
LINE
  8
_1-1_
  6
CONTINUOUS
 62
    7
 10
187.17000149135279
 20
132.9329560679532
 11
188.40111358489165
 21
130.19718715695237
  0
LINE
  8
_1-1_
  6
CONTINUOUS
 62
    7
 10
182.79279102893724
 20
130.96319898787507
 11
188.40111358489165
 21
130.19718715695237
  0
LINE
  8
_1-b_
  6
CONTINUOUS
 62
    3
 10
188.03868847667795
 20
131.15047381763648
 11
189.72788591386123
 21
131.77221585997179
  0
LINE
  8
_1-b_
  6
CONTINUOUS
 62
    3
 10
187.34786123586292
 20
133.02736673227963
 11
188.03868847667795
 21
131.15047381763648
  0
LINE
  8
ADD_LINE
  6
DOT
 62
    3
 10
187.17000149135279
 20
132.93296843994435
 11
187.17000149135279
 21
132.54993159450515
  0
LINE
  8
_1-1_
  6
CONTINUOUS
 62
    7
 10
182.79279102893724
 20
130.96321135986622
 11
187.17000149135279
 21
132.93296843994435
  0
LINE
  8
_1-1_
  6
CONTINUOUS
 62
    7
 10
226.88419200022102
 20
147.5145724438506
 11
225.65307990668217
 21
150.25034135485143
  0
LINE
  8
_1-1_
  6
CONTINUOUS
 62
    7
 10
225.65307990668217
 20
150.25034135485143
 11
230.03031511307998
 21
152.2201108069207
  0
LINE
  8
_1-1_
  6
CONTINUOUS
 62
    7
 10
230.03031511307998
 20
152.2201108069207
 11
231.26140246263657
 21
149.48431715193757
  0
LINE
  8
_1-1_
  6
CONTINUOUS
 62
    7
 10
231.26140246263657
 20
149.48431715193757
 11
226.88419200022102
 21
147.5145724438506
  0
LINE
  8
_1-1_
  6
CONTINUOUS
 62
    7
 10
225.65307990668217
 20
150.25034135485143
 11
231.26140246263657
 21
149.48431715193757
  0
LINE
  8
_1-b_
  6
CONTINUOUS
 62
    3
 10
174.51402367515766
 20
131.8151095532256
 11
230.20815011360784
 21
152.31450909925599
  0
LINE
  8
_1-b_
  6
CONTINUOUS
 62
    3
 10
230.89900209840516
 20
150.43760381262172
 11
232.58822427957068
 21
151.05937059893927
  0
LINE
  8
_1-b_
  6
CONTINUOUS
 62
    3
 10
230.20815011360784
 20
152.31450909925599
 11
230.89900209840516
 21
150.43760381262172
  0
LINE
  8
_1-b_
  6
CONTINUOUS
 62
    3
 10
175.23031247372188
 20
135.0623984375689
 11
229.42868992832493
 21
155.01125675022729
  0
LINE
  8
_1-b_
  6
CONTINUOUS
 62
    3
 10
174.28145498586292
 20
133.00820251801656
 11
174.69878699071933
 21
131.87435901875557
  0
LINE
  8
_1-1_
  6
CONTINUOUS
 62
    7
 10
230.02360949388657
 20
152.2349571962788
 11
231.25469684344316
 21
149.4992130292602
  0
LINE
  8
_1-1_
  6
CONTINUOUS
 62
    7
 10
225.64637428748875
 20
150.26521248819179
 11
230.02360949388657
 21
152.2349571962788
  0
LINE
  8
_1-1_
  6
CONTINUOUS
 62
    7
 10
230.02360949388657
 20
152.2349571962788
 11
231.25469684344316
 21
149.4992130292602
  0
LINE
  8
_1-b_
  6
CONTINUOUS
 62
    3
 10
230.89229647921175
 20
150.45249968994435
 11
232.58151866037727
 21
151.07421698829737
  0
LINE
  8
_1-b_
  6
CONTINUOUS
 62
    3
 10
230.20144449441443
 20
152.32938023259638
 11
230.89229647921175
 21
150.45249968994435
  0
LINE
  8
_1-1_
  6
CONTINUOUS
 62
    7
 10
225.64637428748875
 20
150.26521248819179
 11
230.02360949388657
 21
152.2349571962788
  0
LINE
  8
_1-1_
  6
CONTINUOUS
 62
    7
 10
230.02360949388657
 20
152.2349571962788
 11
231.25469684344316
 21
149.4992130292602
  0
LINE
  8
_1-1_
  6
CONTINUOUS
 62
    7
 10
230.02360949388657
 20
152.2349571962788
 11
231.25472158742542
 21
149.4992130292602
  0
LINE
  8
_1-b_
  6
CONTINUOUS
 62
    3
 10
230.89229647921175
 20
150.45249968994435
 11
232.581493916395
 21
151.07421698829737
  0
LINE
  8
_1-b_
  6
CONTINUOUS
 62
    3
 10
230.2014692383967
 20
152.32938023259638
 11
230.89229647921175
 21
150.45249968994435
  0
LINE
  8
_1-b_
  6
CONTINUOUS
 62
    3
 10
229.25085492779704
 20
155.49101782233456
 11
229.42198430913152
 21
155.02612788356765
  0
LINE
  8
_1-b_
  6
CONTINUOUS
 62
    3
 10
229.25194366301665
 20
155.49141372605075
 11
229.42868992832493
 21
155.01125675022729
  0
LINE
  8
_1-b_
  6
CONTINUOUS
 62
    3
 10
229.2508796717793
 20
155.49099307835229
 11
229.42198430913152
 21
155.02612788356765
  0
LINE
  8
_1-b_
  6
CONTINUOUS
 62
    3
 10
230.75236925951157
 20
156.04367466619013
 11
232.581493916395
 21
151.07421698829737
  0
LINE
  8
_1-b_
  6
CONTINUOUS
 62
    3
 10
230.75348273871342
 20
156.04407056990632
 11
232.58822427957068
 21
151.05937059893927
  0
LINE
  8
_1-b_
  6
CONTINUOUS
 62
    3
 10
230.75239400349383
 20
156.04367466619013
 11
232.58151866037727
 21
151.07421698829737
  0
LINE
  8
_1-b_
  6
CONTINUOUS
 62
    3
 10
186.39727166924553
 20
136.18897957803554
 11
186.56837630659771
 21
135.72411438325094
  0
LINE
  8
_1-b_
  6
CONTINUOUS
 62
    3
 10
187.89876125697779
 20
136.74166116587338
 11
189.72788591386123
 21
131.77221585997179
  0
LINE
  8
_1-b_
  6
CONTINUOUS
 62
    3
 10
186.39727166924553
 20
136.18897957803554
 11
186.56837630659771
 21
135.72411438325094
  0
LINE
  8
_1-b_
  6
CONTINUOUS
 62
    3
 10
187.89878600096006
 20
136.74166116587338
 11
189.72791065784349
 21
131.77221585997179
  0
LINE
  8
_1-b_
  6
CONTINUOUS
 62
    3
 10
143.53695804751828
 20
116.90184958305034
 11
143.70806268487053
 21
116.43697201627455
  0
LINE
  8
_1-b_
  6
CONTINUOUS
 62
    3
 10
145.03844763525058
 20
117.45450642690591
 11
146.86757229213401
 21
112.48507349299544
  0
LINE
  8
_1-c_
  6
CONTINUOUS
 62
    7
 10
128.93414845081224
 20
120.47791175972895
 11
131.42114136413571
 21
113.72107252303132
  0
LINE
  8
_1-c_
  6
CONTINUOUS
 62
    7
 10
171.79446207253943
 20
139.76502938272304
 11
174.28145498586292
 21
133.00820251801656
  0
LINE
  8
_1-c_
  6
CONTINUOUS
 62
    7
 10
172.7432948164161
 20
141.81922530227541
 11
215.23930278727761
 21
157.4607872744038
  0
LINE
  8
_1-c_
  6
CONTINUOUS
 62
    7
 10
129.88299356668006
 20
122.53209530729018
 11
172.38005315678771
 21
138.17404081114367
  0
LINE
  8
_1-b_
  6
CONTINUOUS
 62
    3
 10
100.08256615562641
 20
97.396044644811298
 11
144.48754761413574
 21
113.74022436530328
  0
LINE
  8
_1-b_
  6
CONTINUOUS
 62
    3
 10
98.930709037277595
 20
99.95572300603385
 11
143.70806268487053
 21
116.43697201627455
  0
LINE
  8
_1-c_
  6
CONTINUOUS
 62
    7
 10
95.968804872370498
 20
106.53775838003091
 11
129.51975190705167
 21
118.88689844416731
  0
LINE
  8
_1-b_
  6
CONTINUOUS
 62
    3
 10
229.25085492779704
 20
155.49101782233456
 11
230.75236925951157
 21
156.04368703818125
  0
LINE
  8
_1-b_
  6
CONTINUOUS
 62
    7
 10
215.23930278727761
 20
157.4607872744038
 11
228.44209786751409
 21
162.32035692706427
  0
LINE
  8
_1-b_
  6
CONTINUOUS
 62
    7
 10
230.75236925951157
 20
156.04367466619013
 11
228.44209786751409
 21
162.32035692706427
  0
LINE
  8
_1-0_
  6
CONTINUOUS
 62
    7
 10
104.56815526035615
 20
87.42806748185734
 11
235.13513513513516
 21
146.18320361987966
  0
LINE
  8
_1-0_
  6
CONTINUOUS
 62
    7
 10
103.33706791079956
 20
90.163824020867054
 11
235.13513513513516
 21
149.47297792176943
  0
LINE
  8
_1-0_
  6
CONTINUOUS
 62
    7
 10
102.68048634143723
 20
91.622902422999658
 11
231.70345370577425
 21
149.6832463973451
  0
LINE
  8
_1-0_
  6
CONTINUOUS
 62
    7
 10
102.92668896495918
 20
91.075757301193278
 11
231.9496563292962
 21
149.13610746153429
  0
LINE
  8
_1-1_
  6
DASHED1
 62
    3
 10
103.00876475412726
 20
90.893369407928901
 11
234.52294426995357
 21
150.07477631440034
  0
LINE
  8
_1-b_
  6
CONTINUOUS
 62
    3
 10
102.17815875750564
 20
98.167364059929554
 11
104.00727104239795
 21
93.197931126019085
  0
ARC
  8
_1-b_
  6
CONTINUOUS
 62
    3
 10
132.92265569585024
 20
114.2737293668869
 40
1.5999999239638045
 50
110.20680236816406
 51
200.20738220214844
  0
ARC
  8
_1-b_
  6
CONTINUOUS
 62
    3
 10
175.78296931757745
 20
133.56087173386325
 40
1.5999999239638045
 50
110.20680236816406
 51
200.20738220214844
  0
ARC
  8
_1-c_
  6
CONTINUOUS
 62
    7
 10
130.43566278252675
 20
121.03056860358453
 40
1.5999999239638045
 50
110.20722961425781
 51
200.20695495605469
  0
ARC
  8
_1-c_
  6
CONTINUOUS
 62
    7
 10
173.29597640425396
 20
140.31768622657862
 40
1.5999999239638045
 50
110.20748901367187
 51
200.20695495605469
  0
LINE
  8
_1-0_
  6
CONTINUOUS
 62
    7
 10
231.70345370577425
 20
149.6832463973451
 11
231.9496563292962
 21
149.13610746153429
  0
TEXT
  8
_1-5_
 62
    7
 10
46.920026897185267
 20
183.65780392208615
 40
2.5
 41
1
 50
0
  1
桟瓦
  0
TEXT
  8
_1-5_
 62
    7
 10
46.604498852355761
 20
178.26098055452914
 40
2.5
 41
1
 50
0
  1
瓦桟　
  0
TEXT
  8
_1-5_
 62
    7
 10
61.051965728411488
 20
158.36449288033151
 40
2.5
 41
1
 50
0
  1
ｔ＝12
  0
TEXT
  8
_1-4_
 62
    7
 10
47.049023462720527
 20
158.47361384211359
 40
2.5
 41
1
 50
0
  1
化粧野地板
  0
TEXT
  8
_1-0_
 62
    7
 10
54.069835770111354
 20
174.71010185464604
 40
2.5
 41
1
 50
0
  1
※　地域により瓦桟木の大きさは、異なります
  0
LINE
  8
_1-0_
  6
CONTINUOUS
 62
    7
 10
98.63717156487543
 20
179.08588306323904
 11
86.345109786517739
 21
179.08588306323904
  0
LINE
  8
_1-0_
  6
CONTINUOUS
 62
    7
 10
111.81362667599241
 20
165.14556884765625
 11
93.900612124551145
 21
165.14556884765625
  0
TEXT
  8
_1-6_
 62
    7
 10
179.92330396497573
 20
214.05405405405406
 40
2.5
 41
1
 50
0
  1
水切板金
  0
TEXT
  8
_1-6_
 62
    7
 10
182.95172108985025
 20
177.44667741264558
 40
2.5
 41
1
 50
0
  1
葺き土
  0
TEXT
  8
_1-5_
 62
    7
 10
46.606057723238337
 20
171.26098220412797
 40
2.5
 41
1
 50
0
  1
縦桟
  0
TEXT
  8
_1-6_
 62
    7
 10
47.188149958402647
 20
164.74831010815308
 40
2.5
 41
1
 50
0
  1
ルーフィング
  0
LINE
  8
_1-0_
  6
CONTINUOUS
 62
    7
 10
93.900612124551145
 20
165.14556884765625
 11
65.942049708818644
 21
165.14556884765625
  0
LINE
  8
_1-0_
  6
CONTINUOUS
 62
    7
 10
81.641445675411745
 20
159.41668123812289
 11
74.336652454242937
 21
159.41668123812289
  0
TEXT
  8
_1-6_
 62
    7
 10
46.689025326767194
 20
151.36805766337628
 40
2.5
 41
1
 50
0
  1
化粧たる木
  0
LINE
  8
_1-0_
  6
CONTINUOUS
 62
    7
 10
86.033601503114454
 20
152.73297284100508
 11
62.459182612312816
 21
152.73297284100508
  0
TEXT
  8
_1-6_
 62
    7
 10
53.654843476005482
 20
178.15311557830682
 40
2.5
 41
1
 50
0
  1
15ｘ21以上　（防腐処理）
  0
ARC
  8
_1-2_
  6
CONTINUOUS
 62
    3
 10
246.38028531461151
 20
114.91420848949537
 40
60.168024011560391
 50
119.47410785006181
 51
130.12748718261719
  0
ARC
  8
_1-2_
  6
CONTINUOUS
 62
    3
 10
246.38028531461151
 20
114.91420848949537
 40
60.168024011560391
 50
110.20719909667969
 51
119.09852615613379
  0
ARC
  8
_1-2_
  6
CONTINUOUS
 62
    3
 10
246.38028531461151
 20
114.91420848949537
 40
60.168024011560391
 50
119.09852615613379
 51
119.47410785006184
  0
ARC
  8
_1-2_
  6
CONTINUOUS
 62
    6
 10
213.42593074043262
 20
168.52131863560732
 40
5.0127144433329747
 50
356.26960322213694
 51
25.384268333899172
  0
LINE
  8
ADD_LINE
  6
DOT
 62
    4
 10
230.02664102090372
 20
181.42402855125636
 11
234.99038061564062
 21
183.14928244592346
  0
ARC
  8
_1-7_
  6
CONTINUOUS
 62
    1
 10
191.47671661483105
 20
155.03541818800369
 40
26.624738931246998
 50
350.65464432949773
 51
16.86485499100073
  0
ARC
  8
_1-7_
  6
CONTINUOUS
 62
    1
 10
213.42593074043262
 20
168.52131863560732
 40
5.0127144433329747
 50
356.26960322213694
 51
25.384268333899172
  0
SOLID
  8
ADD_LINE
  6
DOT
 62
    8
 10
216.95637130966404
 20
162.75966053202262
 11
226.84071974419129
 21
168.00042458036827
 12
216.95637130966401
 22
162.75966053202262
 13
217.94237392106399
 23
163.43897162295977
  0
SOLID
  8
ADD_LINE
  6
DOT
 62
    8
 10
226.84071974419129
 20
168.00042458036827
 11
225.74661700913381
 21
167.55829379036709
 12
217.94237392106399
 22
163.43897162295977
 13
219.41035054799457
 23
164.38267088312944
  0
SOLID
  8
ADD_LINE
  6
DOT
 62
    8
 10
225.74661700913381
 20
167.55829379036709
 11
223.94909460881061
 21
166.80932612356574
 12
219.41035054799457
 22
164.38267088312944
 13
220.9532239416053
 23
165.3113907899631
  0
SOLID
  8
ADD_LINE
  6
DOT
 62
    8
 10
223.94909460881061
 20
166.80932612356574
 11
222.36128315519181
 21
166.04537910342839
 12
220.9532239416053
 22
165.3113907899631
 13
220.9532239416053
 23
165.3113907899631
  0
SOLID
  8
ADD_LINE
  6
DOT
 62
    8
 10
232.58822427957068
 20
151.05937059893927
 11
230.83628411441936
 21
150.41672859823709
 12
231.26140246263657
 22
149.48434189591984
 13
231.26140246263657
 23
149.48434189591984
  0
SOLID
  8
ADD_LINE
  6
DOT
 62
    8
 10
232.58822427957068
 20
151.05937059893927
 11
231.26140246263657
 21
149.48434189591984
 12
231.70345370577425
 22
149.6832463973451
 13
231.70345370577425
 23
149.6832463973451
  0
SOLID
  8
ADD_LINE
  6
DOT
 62
    8
 10
232.58822427957068
 20
151.05937059893927
 11
231.70345370577425
 21
149.6832463973451
 12
232.07086954540449
 22
148.96239495138082
 13
232.07086954540449
 23
148.96239495138082
  0
SOLID
  8
ADD_LINE
  6
DOT
 62
    8
 10
232.58822427957068
 20
151.05937059893927
 11
232.07086954540449
 21
148.96239495138082
 12
234.52294426995354
 22
150.07477631440034
 13
234.52294426995354
 23
150.07477631440034
  0
SOLID
  8
ADD_LINE
  6
DOT
 62
    8
 10
232.58305561292565
 20
151.07341304137688
 11
232.58822427957068
 21
151.05937059893927
 12
232.58305561292565
 22
151.07341304137688
 13
234.52294426995178
 23
150.07477631439954
  0
SOLID
  8
ADD_LINE
  6
DOT
 62
    8
 10
230.02664102090372
 20
181.42402855125636
 11
223.46923044692997
 21
178.14391056874146
 12
223.56933521209999
 22
177.85789695396994
 13
223.56933521209999
 23
177.85789695396994
  0
SOLID
  8
ADD_LINE
  6
DOT
 62
    8
 10
230.02664102090372
 20
181.42402855125636
 11
223.56933521209999
 21
177.85789695396994
 12
224.74199103266318
 22
178.34412009908152
 13
224.74199103266318
 23
178.34412009908152
  0
SOLID
  8
ADD_LINE
  6
DOT
 62
    8
 10
230.02664102090372
 20
181.42402855125636
 11
224.74199103266318
 21
178.34412009908152
 12
225.84458121915529
 22
178.76302383368835
 13
225.84458121915529
 23
178.76302383368835
  0
SOLID
  8
ADD_LINE
  6
DOT
 62
    8
 10
230.02664102090372
 20
181.42402855125636
 11
225.84458121915529
 21
178.76302383368835
 12
227.08808116780506
 22
175.3846023087516
 13
227.08808116780506
 23
175.3846023087516
  0
LINE
  8
_1-4_
  6
CONTINUOUS
 62
    7
 10
227.18099001663893
 20
163.1094009983361
 11
234.38099001663895
 21
163.1094009983361
  0
LINE
  8
_1-4_
  6
CONTINUOUS
 62
    7
 10
234.38099001663895
 20
163.1094009983361
 11
234.38099001663895
 21
175.1094009983361
  0
LINE
  8
_1-4_
  6
CONTINUOUS
 62
    7
 10
234.38099001663895
 20
175.1094009983361
 11
227.18099001663893
 21
175.1094009983361
  0
LINE
  8
_1-4_
  6
CONTINUOUS
 62
    7
 10
227.18099001663893
 20
175.1094009983361
 11
227.18099001663893
 21
163.1094009983361
  0
LINE
  8
_1-4_
  6
CONTINUOUS
 62
    7
 10
227.18099001663893
 20
175.1094009983361
 11
233.96193822509466
 21
163.1094009983361
  0
LINE
  8
_1-4_
  6
DASHED1
 62
    7
 10
227.32878893352202
 20
173.18949024226734
 11
230.82747548075264
 21
173.18949024226734
  0
LINE
  8
_1-4_
  6
DASHED1
 62
    7
 10
227.32878893352202
 20
173.58949024226735
 11
230.82747548075264
 21
173.58949024226735
  0
LINE
  8
_1-4_
  6
DASHED1
 62
    7
 10
230.82747548075264
 20
173.58949024226735
 11
231.20315922002411
 21
173.38949024226736
  0
LINE
  8
_1-4_
  6
DASHED1
 62
    7
 10
230.82747548075264
 20
173.18949024226734
 11
231.20315922002411
 21
173.38949024226736
  0
LINE
  8
ADD_LINE
  6
DOT
 62
    4
 10
226.76663991105946
 20
173.38949024226736
 11
231.20315922002411
 21
173.38949024226736
  0
LINE
  8
_1-4_
  6
CONTINUOUS
 62
    7
 10
227.1090261059133
 20
172.78949024226733
 11
227.1090261059133
 21
173.98949024226735
  0
LINE
  8
_1-4_
  6
CONTINUOUS
 62
    7
 10
227.1090261059133
 20
173.98949024226735
 11
226.80902610591329
 21
173.98949024226735
  0
LINE
  8
_1-4_
  6
CONTINUOUS
 62
    7
 10
226.80902610591329
 20
173.98949024226735
 11
226.80902610591329
 21
172.78949024226733
  0
LINE
  8
_1-4_
  6
CONTINUOUS
 62
    7
 10
226.80902610591329
 20
172.78949024226733
 11
227.1090261059133
 21
172.78949024226733
  0
LINE
  8
_1-4_
  6
CONTINUOUS
 62
    7
 10
227.1090261059133
 20
173.18949024226734
 11
227.32878893352202
 21
173.18949024226734
  0
LINE
  8
_1-4_
  6
CONTINUOUS
 62
    7
 10
227.1090261059133
 20
173.58949024226735
 11
227.32878893352202
 21
173.58949024226735
  0
LINE
  8
_1-4_
  6
DASHED1
 62
    7
 10
227.30927103088209
 20
166.70214226289517
 11
230.80795757811268
 21
166.70214226289517
  0
LINE
  8
_1-4_
  6
DASHED1
 62
    7
 10
227.30927103088209
 20
167.10214226289517
 11
230.80795757811268
 21
167.10214226289517
  0
LINE
  8
_1-4_
  6
DASHED1
 62
    7
 10
230.80795757811268
 20
167.10214226289517
 11
231.18364131738414
 21
166.90214226289515
  0
LINE
  8
_1-4_
  6
DASHED1
 62
    7
 10
230.80795757811268
 20
166.70214226289517
 11
231.18364131738414
 21
166.90214226289515
  0
LINE
  8
ADD_LINE
  6
DOT
 62
    4
 10
226.74712200841952
 20
166.90214226289515
 11
231.18364131738414
 21
166.90214226289515
  0
LINE
  8
_1-4_
  6
CONTINUOUS
 62
    7
 10
227.08950820327334
 20
166.30214226289516
 11
227.08950820327334
 21
167.50214226289518
  0
LINE
  8
_1-4_
  6
CONTINUOUS
 62
    7
 10
227.08950820327334
 20
167.50214226289518
 11
226.78950820327333
 21
167.50214226289518
  0
LINE
  8
_1-4_
  6
CONTINUOUS
 62
    7
 10
226.78950820327333
 20
167.50214226289518
 11
226.78950820327333
 21
166.30214226289516
  0
LINE
  8
_1-4_
  6
CONTINUOUS
 62
    7
 10
226.78950820327333
 20
166.30214226289516
 11
227.08950820327334
 21
166.30214226289516
  0
LINE
  8
_1-4_
  6
CONTINUOUS
 62
    7
 10
227.08950820327334
 20
166.70214226289517
 11
227.30927103088209
 21
166.70214226289517
  0
LINE
  8
_1-4_
  6
CONTINUOUS
 62
    7
 10
227.08950820327334
 20
167.10214226289517
 11
227.30927103088209
 21
167.10214226289517
  0
LINE
  8
_1-4_
  6
CONTINUOUS
 62
    7
 10
224.13502404149705
 20
178.15374481658174
 11
225.89020159852626
 21
178.83316838704465
  0
LINE
  8
_1-4_
  6
CONTINUOUS
 62
    7
 10
225.89020159852626
 20
178.83316838704465
 11
227.1924301085802
 21
175.39830478081547
  0
LINE
  8
_1-4_
  6
CONTINUOUS
 62
    7
 10
227.1924301085802
 20
175.39830478081547
 11
225.5504898132948
 21
174.73775408730984
  0
LINE
  8
_1-4_
  6
DASHED1
 62
    7
 10
224.13502404149705
 20
178.15374481658174
 11
225.5504898132948
 21
174.73775408730984
  0
LINE
  8
_1-4_
  6
CONTINUOUS
 62
    7
 10
225.5504898132948
 20
174.73775408730984
 11
227.13581147770827
 21
173.98283900901771
  0
LINE
  8
_1-4_
  6
CONTINUOUS
 62
    7
 10
227.13581147770827
 20
173.98283900901771
 11
227.15468435466559
 21
172.92595789940873
  0
LINE
  8
_1-4_
  6
CONTINUOUS
 62
    7
 10
224.24826130324087
 20
170.86881431106266
 11
225.66372707503862
 21
171.45387349673908
  0
LINE
  8
_1-4_
  6
CONTINUOUS
 62
    7
 10
225.66372707503862
 20
171.45387349673908
 11
226.89046407726335
 21
167.94351838268065
  0
LINE
  8
_1-4_
  6
CONTINUOUS
 62
    7
 10
226.89046407726335
 20
167.94351838268065
 11
225.70147282895323
 21
167.45282358179077
  0
LINE
  8
_1-4_
  6
DASHED1
 62
    7
 10
224.20412055872191
 20
170.84638912082198
 11
225.70147282895323
 21
167.45282358179077
  0
LINE
  8
_1-4_
  6
CONTINUOUS
 62
    7
 10
225.70147282895323
 20
167.45282358179077
 11
227.08950820327334
 21
167.50214226289518
  0
LINE
  8
_1-4_
  6
CONTINUOUS
 62
    7
 10
227.08950820327334
 20
167.50214226289518
 11
227.15468435466559
 21
166.45256110305368
  0
SOLID
  8
_1-7_
  6
CONTINUOUS
 62
    8
 10
216.95637130966404
 20
162.75966053202262
 11
218.7545843632802
 21
156.8279657931387
 12
229.42198430913152
 22
155.02612788356765
 13
229.42198430913152
 23
155.02612788356765
  0
SOLID
  8
_1-7_
  6
CONTINUOUS
 62
    8
 10
216.95637130966404
 20
162.75966053202262
 11
229.42198430913152
 21
155.02612788356765
 12
229.25085492779704
 22
155.49101782233456
 13
229.25085492779704
 23
155.49101782233456
  0
SOLID
  8
_1-7_
  6
CONTINUOUS
 62
    8
 10
216.95637130966404
 20
162.75966053202262
 11
229.25085492779704
 21
155.49101782233456
 12
230.75236925951157
 22
156.04367466619013
 13
230.75236925951157
 23
156.04367466619013
  0
SOLID
  8
_1-7_
  6
CONTINUOUS
 62
    8
 10
216.95637130966404
 20
162.75966053202262
 11
230.75236925951157
 21
156.04367466619013
 12
234.38099001663895
 22
163.1094009983361
 13
234.38099001663895
 23
163.1094009983361
  0
SOLID
  8
_1-7_
  6
CONTINUOUS
 62
    8
 10
216.95637130966404
 20
162.75966053202262
 11
234.38099001663895
 21
163.1094009983361
 12
227.18099001663893
 22
163.1094009983361
 13
227.18099001663893
 23
163.1094009983361
  0
SOLID
  8
_1-7_
  6
CONTINUOUS
 62
    8
 10
218.7545843632802
 20
156.8279657931387
 11
217.7480781847309
 21
150.71196072659069
 12
218.7545843632802
 22
156.8279657931387
 13
229.42868992832493
 23
155.01125675022729
  0
SOLID
  8
_1-7_
  6
CONTINUOUS
 62
    8
 10
234.38099001663895
 20
163.1094009983361
 11
230.75348273871342
 21
156.04407056990632
 12
234.52294426995178
 22
150.07477631439954
 13
232.581493916395
 23
151.07421698829737
  0
SOLID
  8
_1-7_
  6
CONTINUOUS
 62
    8
 10
216.95637130966404
 20
162.75966053202259
 11
227.18099001663893
 21
163.1094009983361
 12
227.08950820327334
 22
166.30214226289516
 13
227.08950820327334
 23
166.30214226289516
  0
SOLID
  8
_1-7_
  6
CONTINUOUS
 62
    8
 10
216.95637130966404
 20
162.75966053202259
 11
227.08950820327334
 21
166.30214226289516
 12
226.78950820327333
 22
166.30214226289516
 13
226.78950820327333
 23
166.30214226289516
  0
SOLID
  8
_1-7_
  6
CONTINUOUS
 62
    8
 10
216.95637130966404
 20
162.75966053202259
 11
226.78950820327333
 21
166.30214226289516
 12
226.78950820327333
 22
167.49148287725916
 13
226.78950820327333
 23
167.49148287725916
  0
SOLID
  8
_1-7_
  6
CONTINUOUS
 62
    8
 10
216.95637130966404
 20
162.75966053202259
 11
226.78950820327333
 21
167.49148287725916
 12
226.84071974419118
 22
168.00042458036822
 13
226.84071974419118
 23
168.00042458036822
  0
SOLID
  8
_1-7_
  6
CONTINUOUS
 62
    8
 10
217.95468279910668
 20
170.67020459848538
 11
218.5127171720483
 21
169.49415367771644
 12
218.5127171720483
 22
169.49415367771644
 13
218.5127171720483
 23
169.49415367771644
  0
SOLID
  8
_1-7_
  6
CONTINUOUS
 62
    8
 10
226.80902610591329
 20
172.78949024226733
 11
226.80902610591329
 21
173.98949024226735
 12
226.80902610591329
 22
173.98949024226735
 13
226.80902610591329
 23
173.98949024226735
  0
SOLID
  8
_1-7_
  6
CONTINUOUS
 62
    8
 10
227.08807043127112
 20
175.38460396431589
 11
226.1859780158762
 21
175.0401174225016
 12
226.1859780158762
 22
175.0401174225016
 13
226.1859780158762
 23
175.0401174225016
  0
SOLID
  8
_1-7_
  6
CONTINUOUS
 62
    8
 10
226.1859780158762
 20
175.0401174225016
 11
225.53421616404614
 21
174.77702782749662
 12
225.53421616404614
 22
174.77702782749662
 13
225.53421616404614
 23
174.77702782749662
  0
SOLID
  8
_1-7_
  6
CONTINUOUS
 62
    8
 10
225.53421616404614
 20
174.77702782749662
 11
224.29441608083172
 21
174.24367029195656
 12
224.29441608083172
 22
174.24367029195656
 13
224.29441608083172
 23
174.24367029195656
  0
SOLID
  8
_1-7_
  6
CONTINUOUS
 62
    8
 10
224.29441608083172
 20
174.24367029195656
 11
222.87574462954836
 21
173.54677905272965
 12
222.87574462954836
 22
173.54677905272965
 13
222.87574462954836
 23
173.54677905272965
  0
SOLID
  8
_1-7_
  6
CONTINUOUS
 62
    8
 10
222.87574462954836
 20
173.54677905272965
 11
221.63129598807174
 21
172.88722127274704
 12
221.63129598807174
 22
172.88722127274704
 13
221.63129598807174
 23
172.88722127274704
  0
SOLID
  8
_1-7_
  6
CONTINUOUS
 62
    8
 10
221.63129598807174
 20
172.88722127274704
 11
220.15040210471454
 21
172.0534406829577
 12
220.15040210471454
 22
172.0534406829577
 13
220.15040210471454
 23
172.0534406829577
  0
SOLID
  8
_1-7_
  6
CONTINUOUS
 62
    8
 10
220.15040210471454
 20
172.0534406829577
 11
218.96817589531176
 21
171.33166047090126
 12
218.96817589531176
 22
171.33166047090126
 13
218.96817589531176
 23
171.33166047090126
  0
SOLID
  8
_1-7_
  6
CONTINUOUS
 62
    8
 10
218.96817589531176
 20
171.33166047090126
 11
217.95468279910668
 21
170.67020459848538
 12
217.95468279910668
 22
170.67020459848538
 13
217.95468279910668
 23
170.67020459848538
  0
SOLID
  8
_1-7_
  6
CONTINUOUS
 62
    8
 10
217.95468279910668
 20
170.67020459848538
 11
218.5127171720483
 21
169.49415367771644
 12
218.5127171720483
 22
169.49415367771644
 13
218.5127171720483
 23
169.49415367771644
  0
SOLID
  8
_1-7_
  6
CONTINUOUS
 62
    8
 10
217.95468279910668
 20
170.67020459848538
 11
218.5127171720483
 21
169.49415367771644
 12
217.95468279910668
 22
170.67020459848538
 13
225.59727024387669
 23
171.37886253563136
  0
SOLID
  8
_1-7_
  6
CONTINUOUS
 62
    8
 10
218.5127171720483
 20
169.49415367771644
 11
218.42802445448766
 21
168.19518282615041
 12
219.58914399029211
 22
168.79298524228892
 13
219.58914399029211
 23
168.79298524228892
  0
SOLID
  8
_1-7_
  6
CONTINUOUS
 62
    8
 10
218.5127171720483
 20
169.49415367771644
 11
219.58914399029211
 21
168.79298524228892
 12
220.89879860001773
 22
169.43884231009881
 13
220.89879860001773
 23
169.43884231009881
  0
SOLID
  8
_1-7_
  6
CONTINUOUS
 62
    8
 10
218.5127171720483
 20
169.49415367771644
 11
220.89879860001773
 21
169.43884231009881
 12
222.06492941689669
 22
169.97705653327372
 13
222.06492941689669
 23
169.97705653327372
  0
SOLID
  8
_1-7_
  6
CONTINUOUS
 62
    8
 10
218.5127171720483
 20
169.49415367771644
 11
222.06492941689669
 21
169.97705653327372
 12
222.76460790702407
 22
170.28204459307284
 13
222.76460790702407
 23
170.28204459307284
  0
SOLID
  8
_1-7_
  6
CONTINUOUS
 62
    8
 10
218.5127171720483
 20
169.49415367771644
 11
222.76460790702407
 21
170.28204459307284
 12
223.55398876768061
 22
170.58703265287195
 13
223.55398876768061
 23
170.58703265287195
  0
SOLID
  8
_1-7_
  6
CONTINUOUS
 62
    8
 10
218.5127171720483
 20
169.49415367771644
 11
223.55398876768061
 21
170.58703265287195
 12
224.19984583549049
 22
170.80231834214192
 13
224.19984583549049
 23
170.80231834214192
  0
SOLID
  8
_1-7_
  6
CONTINUOUS
 62
    8
 10
218.5127171720483
 20
169.49415367771644
 11
224.19984583549049
 21
170.80231834214192
 12
225.44898302382668
 22
171.36511262223814
 13
225.44898302382668
 23
171.36511262223814
  0
SOLID
  8
_1-7_
  6
CONTINUOUS
 62
    8
 10
217.95468279910668
 20
170.67020459848538
 11
225.44898302382668
 21
171.36511262223814
 12
217.95468279910668
 22
170.67020459848541
 13
222.76460790702407
 23
173.49338945801645
  0
SOLID
  8
_1-7_
  6
CONTINUOUS
 62
    8
 10
222.76460790702407
 20
173.49338945801645
 11
221.25019009908058
 21
172.70126230182291
 12
217.95468279910668
 22
170.67020459848541
 13
219.29773815298574
 23
171.54650473059175
  0
SOLID
  8
_1-7_
  6
CONTINUOUS
 62
    8
 10
221.25019009908058
 20
172.70126230182291
 11
220.27016558139096
 21
172.16946605191384
 12
219.29773815298574
 22
171.54650473059175
 13
219.29773815298574
 23
171.54650473059175
  0
SOLID
  8
_1-7_
  6
CONTINUOUS
 62
    8
 10
222.76877535969166
 20
173.49008533970559
 11
225.44898302382668
 21
171.36511262223814
 12
222.76460790702407
 22
173.49338945801645
 13
225.53507361243166
 23
174.74630220094485
  0
SOLID
  8
_1-7_
  6
CONTINUOUS
 62
    8
 10
225.44898302382668
 20
171.36511262223814
 11
225.59724928862107
 21
171.37885696088932
 12
225.53507361243166
 22
174.74630220094485
 13
226.80902610591329
 23
173.98949024226735
  0
SOLID
  8
_1-7_
  6
CONTINUOUS
 62
    8
 10
225.59724928862107
 20
171.37885696088932
 11
226.80902610591329
 21
172.78949024226733
 12
226.80902610591329
 22
173.98949024226735
 13
226.80902610591329
 23
173.98949024226735
  0
SOLID
  8
_1-7_
  6
CONTINUOUS
 62
    8
 10
227.08807043127112
 20
175.38460396431589
 11
225.53507361243166
 21
174.74630220094485
 12
227.08808116780506
 22
175.3846023087516
 13
225.5504898132948
 23
174.73775408730984
  0
SOLID
  8
_1-7_
  6
CONTINUOUS
 62
    8
 10
225.53421616404614
 20
174.77702782749662
 11
224.75825503734882
 21
174.43182530645296
 12
225.54284973796152
 22
174.73884062408402
 13
222.83429238019417
 23
173.54489216662992
  0
SOLID
  8
_1-7_
  6
CONTINUOUS
 62
    8
 10
224.75825503734882
 20
174.43182530645296
 11
224.04188596287634
 21
174.11116486359387
 12
222.83429238019417
 22
173.54489216662992
 13
223.3050492005618
 23
173.77003673289269
  0
SOLID
  8
_1-7_
  6
CONTINUOUS
 62
    8
 10
227.08766402467069
 20
175.38444876779505
 11
226.80902610591329
 21
173.98949024226735
 12
227.08808116780506
 22
175.3846023087516
 13
227.18099001663893
 23
175.1094009983361
  0
SOLID
  8
_1-7_
  6
CONTINUOUS
 62
    8
 10
226.80902610591329
 20
173.98949024226735
 11
227.1090261059133
 21
173.98949024226735
 12
227.18099001663893
 22
175.1094009983361
 13
227.18388925171587
 23
174.00076270361538
  0
SOLID
  8
_1-7_
  6
CONTINUOUS
 62
    8
 10
227.08766402467069
 20
175.38444876779505
 11
226.13347350104115
 21
175.02068251314148
 12
226.80902610591329
 22
173.98949024226735
 13
225.53507361243166
 23
174.74630220094485
  0
SOLID
  8
_1-7_
  6
CONTINUOUS
 62
    8
 10
226.13347350104115
 20
175.02068251314148
 11
225.53421616404728
 21
174.77702782749714
 12
225.53507361243166
 22
174.74630220094485
 13
225.53507361243166
 23
174.74630220094485
  0
SOLID
  8
_1-7_
  6
CONTINUOUS
 62
    8
 10
225.59724928862104
 20
171.37885696088929
 11
226.83259030277293
 21
167.91963396781159
 12
227.08950820327334
 22
167.50214226289518
 13
227.08950820327334
 23
167.50214226289518
  0
SOLID
  8
_1-7_
  6
CONTINUOUS
 62
    8
 10
225.59724928862104
 20
171.37885696088929
 11
227.08950820327334
 21
167.50214226289518
 12
227.15928527672443
 22
167.53206598795535
 13
227.15928527672443
 23
167.53206598795535
  0
SOLID
  8
_1-7_
  6
CONTINUOUS
 62
    8
 10
227.15928527672443
 20
167.53206598795535
 11
227.15928527672443
 21
172.76286911834072
 12
226.80902610591329
 22
172.78949024226733
 13
226.80902610591329
 23
172.78949024226733
  0
SOLID
  8
_1-7_
  6
CONTINUOUS
 62
    8
 10
227.15928527672443
 20
167.53206598795535
 11
226.80902610591329
 21
172.78949024226733
 12
225.59728015387927
 22
171.37886832150608
 13
225.59728015387927
 23
171.37886832150608
  0
SOLID
  8
_1-7_
  6
CONTINUOUS
 62
    8
 10
227.15928527672443
 20
167.53206598795535
 11
225.59728015387927
 21
171.37886832150608
 12
225.59724928862104
 22
171.37885696088929
 13
225.59724928862104
 23
171.37885696088929
  0
SOLID
  8
_1-7_
  6
CONTINUOUS
 62
    8
 10
226.83259030277293
 20
167.91963396781159
 11
226.79058078891592
 21
167.50214226289518
 12
226.83259030277293
 22
167.91963396781159
 13
227.08950820327334
 23
167.50214226289518
  0
SOLID
  8
_1-7_
  6
CONTINUOUS
 62
    8
 10
230.02664102090372
 20
181.42402855125636
 11
227.08808116780506
 21
175.3846023087516
 12
227.18099001663893
 22
175.1094009983361
 13
227.18099001663893
 23
175.1094009983361
  0
SOLID
  8
_1-7_
  6
CONTINUOUS
 62
    8
 10
230.02664102090372
 20
181.42402855125636
 11
227.18099001663893
 21
175.1094009983361
 12
234.38099001663895
 22
175.1094009983361
 13
234.38099001663895
 23
175.1094009983361
  0
SOLID
  8
_1-7_
  6
CONTINUOUS
 62
    8
 10
234.38099001663895
 20
175.1094009983361
 11
234.52294426995357
 21
182.9868149432445
 12
234.51071131447588
 22
182.86499064059899
 13
234.51071131447588
 23
182.86499064059899
  0
SOLID
  8
_1-7_
  6
CONTINUOUS
 62
    8
 10
234.38099001663895
 20
175.1094009983361
 11
234.51071131447588
 21
182.86499064059899
 12
230.02664102090372
 22
181.42402855125636
 13
230.02664102090372
 23
181.42402855125636
  0
ENDSEC
  0
EOF
