0
SECTION
2
HEADER
  9
$EXTMIN
10
0
20
0
30
0
  9
$EXTMAX
10
1230.648
20
1259.257
30
0
  9
$LTSCALE
40
5.000
  9
$DIMSCALE
40
5.000
  9
$PDMODE
70
0
  9
$PDSIZE
40
40
0
ENDSEC
0
SECTION
2
TABLES
0
TABLE
2
LTYPE
70
9
0
LTYPE
5
1f4
2
CONTINUOUS
70
0
3
実線
72
65
73
0
40
0.0
0
LTYPE
5
1f5
2
DOT
70
0
3
--  --  --  --  --  --  --  --     
72
65
73
2
40
5.000
49
1.000
49
-4.000
0
LTYPE
5
1f6
2
DASHED
70
0
3
----    ----    ----    ----    
72
65
73
2
40
5.000
49
2.000
49
-3.000
0
LTYPE
5
1f7
2
DASHED2
70
0
3
------  ------  ------  ------ 
72
65
73
2
40
10.000
49
4.000
49
-6.000
0
LTYPE
5
1f8
2
CENTER
70
0
3
----- - ----- - ----- - ----- - 
72
65
73
4
40
9.000
49
6.000
49
-1.000
49
1.000
49
-1.000
0
LTYPE
5
1f9
2
CENTER2
70
0
3
----------  --  ----------  -- 
72
65
73
4
40
18.000
49
12.000
49
-2.000
49
2.000
49
-2.000
0
LTYPE
5
1fa
2
PHANTOM
70
0
3
--- - - --- - - --- - - --- - -
72
65
73
6
40
10.000
49
5.000
49
-1.000
49
1.000
49
-1.000
49
1.000
49
-1.000
0
LTYPE
5
1fb
2
PHANTOM2
70
0
3
--------  -  -  --------  -  -
72
65
73
6
40
16.000
49
6.000
49
-2.000
49
2.000
49
-2.000
49
2.000
49
-2.000
0
LTYPE
5
1fc
2
HIDDEN
70
0
3
-   -   -   -   -   -   -   -   
72
65
73
2
40
2.500
49
0.500
49
-2.000
0
ENDTAB
0
TABLE
2
STYLE
70
1
0
STYLE
5
1fd
100
AcDbSymbolTableRecord
100
AcDbTextStyleTableRecord
2
STANDARD
70
0
40
0.0
41
1.0
50
0.0
71
0
42
0.0
3
txt.shx
4
extfont.shx
0
STYLE
5
1fe
100
AcDbSymbolTableRecord
100
AcDbTextStyleTableRecord
2
TATEGAKI
70
4
40
0.0
41
1.0
50
0.0
71
0
42
0.0
3
txt.shx
4
extfont.shx
0
STYLE
5
1ff
100
AcDbSymbolTableRecord
100
AcDbTextStyleTableRecord
2
MT
70
0
40
0.0
41
1.0
50
0.0
71
0
42
0.0
3
MS Mincho
4

0
STYLE
5
200
100
AcDbSymbolTableRecord
100
AcDbTextStyleTableRecord
2
TMT
70
4
40
0.0
41
1.0
50
0.0
71
0
42
0.0
3
@MS Mincho
4

0
ENDTAB
0
TABLE
2
LAYER
5
3796
100
AcDbSymbolTable
70
10
0
LAYER
5
3797
100
AcDbSymbolTableRecord
100
AcDbLayerTableRecord
2
0
70
64
62
  7
  6
CONTINUOUS
0
LAYER
5
3798
100
AcDbSymbolTableRecord
100
AcDbLayerTableRecord
2
0-0
70
64
62
  7
  6
CONTINUOUS
0
LAYER
5
3799
100
AcDbSymbolTableRecord
100
AcDbLayerTableRecord
2
0-1
70
64
62
  7
  6
CONTINUOUS
0
LAYER
5
379a
100
AcDbSymbolTableRecord
100
AcDbLayerTableRecord
2
0-2
70
64
62
  7
  6
CONTINUOUS
0
LAYER
5
379b
100
AcDbSymbolTableRecord
100
AcDbLayerTableRecord
2
ADD_LINE
70
64
62
  -7
  6
CONTINUOUS
0
ENDTAB
0
ENDSEC
0
SECTION
2
ENTITIES
0
LINE
5
379c
8
0-0
6
CONTINUOUS
62
  7
10
626.216
20
522.863
30
0.0
11
616.216
21
522.863
31
0.0
0
LINE
5
379d
8
0-0
6
CONTINUOUS
62
  7
10
626.216
20
547.863
30
0.0
11
616.216
21
532.863
31
0.0
0
LINE
5
379e
8
0-0
6
CONTINUOUS
62
  7
10
616.216
20
522.863
30
0.0
11
616.216
21
532.863
31
0.0
0
LINE
5
379f
8
0-0
6
CONTINUOUS
62
  7
10
742.216
20
406.863
30
0.0
11
757.216
21
416.863
31
0.0
0
LINE
5
37a0
8
0-0
6
CONTINUOUS
62
  7
10
742.216
20
406.863
30
0.0
11
732.216
21
406.863
31
0.0
0
LINE
5
37a1
8
0-0
6
CONTINUOUS
62
  7
10
732.216
20
416.863
30
0.0
11
732.216
21
406.863
31
0.0
0
LINE
5
37a2
8
0-0
6
CONTINUOUS
62
  7
10
737.216
20
547.863
30
0.0
11
626.216
21
547.863
31
0.0
0
LINE
5
37a3
8
0-0
6
CONTINUOUS
62
  7
10
757.216
20
527.864
30
0.0
11
757.216
21
416.863
31
0.0
0
LINE
5
37a4
8
0-0
6
CONTINUOUS
62
  7
10
703.325
20
532.863
30
0.0
11
626.216
21
532.863
31
0.0
0
LINE
5
37a5
8
0-0
6
CONTINUOUS
62
  7
10
742.216
20
493.973
30
0.0
11
742.216
21
416.863
31
0.0
0
LINE
5
37a6
8
0-0
6
CONTINUOUS
62
  7
10
626.216
20
532.863
30
0.0
11
616.216
21
532.863
31
0.0
0
LINE
5
37a7
8
0-0
6
CONTINUOUS
62
  7
10
742.216
20
416.863
30
0.0
11
742.216
21
406.863
31
0.0
0
LINE
5
37a8
8
0-1
6
CONTINUOUS
62
  7
10
726.216
20
1074.324
30
0.0
11
616.216
21
1074.324
31
0.0
0
LINE
5
37a9
8
0-1
6
CONTINUOUS
62
  7
10
616.216
20
1074.324
30
0.0
11
616.216
21
754.324
31
0.0
0
LINE
5
37aa
8
0-1
6
CONTINUOUS
62
  7
10
726.216
20
1074.324
30
0.0
11
727.088
21
1065.324
31
0.0
0
LINE
5
37ab
8
0-1
6
CONTINUOUS
62
  7
10
727.088
20
1065.324
30
0.0
11
626.216
21
1065.324
31
0.0
0
LINE
5
37ac
8
0-1
6
CONTINUOUS
62
  7
10
727.960
20
1056.324
30
0.0
11
626.216
21
1056.324
31
0.0
0
LINE
5
37ad
8
0-1
6
CONTINUOUS
62
  7
10
626.216
20
1074.324
30
0.0
11
626.216
21
1065.324
31
0.0
0
LINE
5
37ae
8
0-1
6
CONTINUOUS
62
  7
10
727.960
20
1056.324
30
0.0
11
757.216
21
784.324
31
0.0
0
LINE
5
37af
8
0-1
6
CONTINUOUS
62
  7
10
626.216
20
789.324
30
0.0
11
626.012
21
788.439
31
0.0
0
LINE
5
37b0
8
0-1
6
CONTINUOUS
62
  7
10
626.012
20
788.439
30
0.0
11
625.791
21
787.572
31
0.0
0
LINE
5
37b1
8
0-1
6
CONTINUOUS
62
  7
10
625.791
20
787.572
30
0.0
11
625.554
21
786.722
31
0.0
0
LINE
5
37b2
8
0-1
6
CONTINUOUS
62
  7
10
625.554
20
786.722
30
0.0
11
625.301
21
785.888
31
0.0
0
LINE
5
37b3
8
0-1
6
CONTINUOUS
62
  7
10
625.301
20
785.888
30
0.0
11
625.033
21
785.070
31
0.0
0
LINE
5
37b4
8
0-1
6
CONTINUOUS
62
  7
10
625.033
20
785.070
30
0.0
11
624.752
21
784.265
31
0.0
0
LINE
5
37b5
8
0-1
6
CONTINUOUS
62
  7
10
624.752
20
784.265
30
0.0
11
624.457
21
783.475
31
0.0
0
LINE
5
37b6
8
0-1
6
CONTINUOUS
62
  7
10
624.457
20
783.475
30
0.0
11
624.151
21
782.699
31
0.0
0
LINE
5
37b7
8
0-1
6
CONTINUOUS
62
  7
10
624.151
20
782.699
30
0.0
11
623.834
21
781.937
31
0.0
0
LINE
5
37b8
8
0-1
6
CONTINUOUS
62
  7
10
623.834
20
781.937
30
0.0
11
623.508
21
781.190
31
0.0
0
LINE
5
37b9
8
0-1
6
CONTINUOUS
62
  7
10
623.508
20
781.190
30
0.0
11
623.175
21
780.458
31
0.0
0
LINE
5
37ba
8
0-1
6
CONTINUOUS
62
  7
10
623.175
20
780.458
30
0.0
11
622.835
21
779.740
31
0.0
0
LINE
5
37bb
8
0-1
6
CONTINUOUS
62
  7
10
622.835
20
779.740
30
0.0
11
622.490
21
779.039
31
0.0
0
LINE
5
37bc
8
0-1
6
CONTINUOUS
62
  7
10
622.490
20
779.039
30
0.0
11
622.142
21
778.355
31
0.0
0
LINE
5
37bd
8
0-1
6
CONTINUOUS
62
  7
10
622.142
20
778.355
30
0.0
11
621.791
21
777.688
31
0.0
0
LINE
5
37be
8
0-1
6
CONTINUOUS
62
  7
10
621.791
20
777.688
30
0.0
11
621.438
21
777.038
31
0.0
0
LINE
5
37bf
8
0-1
6
CONTINUOUS
62
  7
10
621.438
20
777.038
30
0.0
11
621.083
21
776.405
31
0.0
0
LINE
5
37c0
8
0-1
6
CONTINUOUS
62
  7
10
621.083
20
776.405
30
0.0
11
620.727
21
775.790
31
0.0
0
LINE
5
37c1
8
0-1
6
CONTINUOUS
62
  7
10
620.727
20
775.790
30
0.0
11
620.370
21
775.191
31
0.0
0
LINE
5
37c2
8
0-1
6
CONTINUOUS
62
  7
10
620.370
20
775.191
30
0.0
11
620.011
21
774.606
31
0.0
0
LINE
5
37c3
8
0-1
6
CONTINUOUS
62
  7
10
620.011
20
774.606
30
0.0
11
619.647
21
774.035
31
0.0
0
LINE
5
37c4
8
0-1
6
CONTINUOUS
62
  7
10
619.647
20
774.035
30
0.0
11
619.279
21
773.473
31
0.0
0
LINE
5
37c5
8
0-1
6
CONTINUOUS
62
  7
10
619.279
20
773.473
30
0.0
11
618.903
21
772.918
31
0.0
0
LINE
5
37c6
8
0-1
6
CONTINUOUS
62
  7
10
618.903
20
772.918
30
0.0
11
618.515
21
772.363
31
0.0
0
LINE
5
37c7
8
0-1
6
CONTINUOUS
62
  7
10
618.515
20
772.363
30
0.0
11
618.111
21
771.803
31
0.0
0
LINE
5
37c8
8
0-1
6
CONTINUOUS
62
  7
10
618.111
20
771.803
30
0.0
11
617.686
21
771.229
31
0.0
0
LINE
5
37c9
8
0-1
6
CONTINUOUS
62
  7
10
617.686
20
771.229
30
0.0
11
617.234
21
770.633
31
0.0
0
LINE
5
37ca
8
0-1
6
CONTINUOUS
62
  7
10
617.234
20
770.633
30
0.0
11
616.747
21
770.002
31
0.0
0
LINE
5
37cb
8
0-1
6
CONTINUOUS
62
  7
10
616.747
20
770.002
30
0.0
11
616.216
21
769.324
31
0.0
0
LINE
5
37cc
8
0-1
6
CONTINUOUS
62
  7
10
757.216
20
784.324
30
0.0
11
624.752
21
784.324
31
0.0
0
LINE
5
37cd
8
0-1
6
CONTINUOUS
62
  7
10
626.216
20
1056.324
30
0.0
11
626.216
21
789.324
31
0.0
0
LINE
5
37ce
8
0-1
6
CONTINUOUS
62
  7
10
1089.648
20
1074.324
30
0.0
11
1199.648
21
1074.324
31
0.0
0
LINE
5
37cf
8
0-1
6
CONTINUOUS
62
  7
10
1199.648
20
1074.324
30
0.0
11
1230.648
21
754.324
31
0.0
0
LINE
5
37d0
8
0-1
6
CONTINUOUS
62
  7
10
1089.648
20
1074.324
30
0.0
11
1089.648
21
1065.324
31
0.0
0
LINE
5
37d1
8
0-1
6
CONTINUOUS
62
  7
10
1089.648
20
1065.324
30
0.0
11
1190.474
21
1065.324
31
0.0
0
LINE
5
37d2
8
0-1
6
CONTINUOUS
62
  7
10
1089.648
20
1056.324
30
0.0
11
1191.346
21
1056.324
31
0.0
0
LINE
5
37d3
8
0-1
6
CONTINUOUS
62
  7
10
1189.602
20
1074.324
30
0.0
11
1190.474
21
1065.324
31
0.0
0
LINE
5
37d4
8
0-1
6
CONTINUOUS
62
  7
10
757.216
20
784.324
30
0.0
11
757.115
21
783.267
31
0.0
0
LINE
5
37d5
8
0-1
6
CONTINUOUS
62
  7
10
757.115
20
783.267
30
0.0
11
757.000
21
782.211
31
0.0
0
LINE
5
37d6
8
0-1
6
CONTINUOUS
62
  7
10
757.000
20
782.211
30
0.0
11
756.873
21
781.172
31
0.0
0
LINE
5
37d7
8
0-1
6
CONTINUOUS
62
  7
10
756.873
20
781.172
30
0.0
11
756.737
21
780.159
31
0.0
0
LINE
5
37d8
8
0-1
6
CONTINUOUS
62
  7
10
756.737
20
780.159
30
0.0
11
756.593
21
779.181
31
0.0
0
LINE
5
37d9
8
0-1
6
CONTINUOUS
62
  7
10
756.593
20
779.181
30
0.0
11
756.443
21
778.240
31
0.0
0
LINE
5
37da
8
0-1
6
CONTINUOUS
62
  7
10
756.443
20
778.240
30
0.0
11
756.287
21
777.340
31
0.0
0
LINE
5
37db
8
0-1
6
CONTINUOUS
62
  7
10
756.287
20
777.340
30
0.0
11
756.125
21
776.481
31
0.0
0
LINE
5
37dc
8
0-1
6
CONTINUOUS
62
  7
10
756.125
20
776.481
30
0.0
11
755.959
21
775.662
31
0.0
0
LINE
5
37dd
8
0-1
6
CONTINUOUS
62
  7
10
755.959
20
775.662
30
0.0
11
755.789
21
774.882
31
0.0
0
LINE
5
37de
8
0-1
6
CONTINUOUS
62
  7
10
755.789
20
774.882
30
0.0
11
755.614
21
774.139
31
0.0
0
LINE
5
37df
8
0-1
6
CONTINUOUS
62
  7
10
755.614
20
774.139
30
0.0
11
755.435
21
773.431
31
0.0
0
LINE
5
37e0
8
0-1
6
CONTINUOUS
62
  7
10
755.435
20
773.431
30
0.0
11
755.252
21
772.755
31
0.0
0
LINE
5
37e1
8
0-1
6
CONTINUOUS
62
  7
10
755.252
20
772.755
30
0.0
11
755.066
21
772.110
31
0.0
0
LINE
5
37e2
8
0-1
6
CONTINUOUS
62
  7
10
755.066
20
772.110
30
0.0
11
754.875
21
771.492
31
0.0
0
LINE
5
37e3
8
0-1
6
CONTINUOUS
62
  7
10
754.875
20
771.492
30
0.0
11
754.680
21
770.899
31
0.0
0
LINE
5
37e4
8
0-1
6
CONTINUOUS
62
  7
10
754.680
20
770.899
30
0.0
11
754.480
21
770.328
31
0.0
0
LINE
5
37e5
8
0-1
6
CONTINUOUS
62
  7
10
754.480
20
770.328
30
0.0
11
754.275
21
769.779
31
0.0
0
LINE
5
37e6
8
0-1
6
CONTINUOUS
62
  7
10
754.275
20
769.779
30
0.0
11
754.066
21
769.247
31
0.0
0
LINE
5
37e7
8
0-1
6
CONTINUOUS
62
  7
10
754.066
20
769.247
30
0.0
11
753.851
21
768.731
31
0.0
0
LINE
5
37e8
8
0-1
6
CONTINUOUS
62
  7
10
753.851
20
768.731
30
0.0
11
753.631
21
768.230
31
0.0
0
LINE
5
37e9
8
0-1
6
CONTINUOUS
62
  7
10
753.631
20
768.230
30
0.0
11
753.404
21
767.741
31
0.0
0
LINE
5
37ea
8
0-1
6
CONTINUOUS
62
  7
10
753.404
20
767.741
30
0.0
11
753.172
21
767.262
31
0.0
0
LINE
5
37eb
8
0-1
6
CONTINUOUS
62
  7
10
753.172
20
767.262
30
0.0
11
752.932
21
766.793
31
0.0
0
LINE
5
37ec
8
0-1
6
CONTINUOUS
62
  7
10
752.932
20
766.793
30
0.0
11
752.686
21
766.332
31
0.0
0
LINE
5
37ed
8
0-1
6
CONTINUOUS
62
  7
10
752.686
20
766.332
30
0.0
11
752.433
21
765.876
31
0.0
0
LINE
5
37ee
8
0-1
6
CONTINUOUS
62
  7
10
752.433
20
765.876
30
0.0
11
752.173
21
765.426
31
0.0
0
LINE
5
37ef
8
0-1
6
CONTINUOUS
62
  7
10
752.173
20
765.426
30
0.0
11
751.905
21
764.980
31
0.0
0
LINE
5
37f0
8
0-1
6
CONTINUOUS
62
  7
10
751.905
20
764.980
30
0.0
11
751.630
21
764.537
31
0.0
0
LINE
5
37f1
8
0-1
6
CONTINUOUS
62
  7
10
751.630
20
764.537
30
0.0
11
751.347
21
764.097
31
0.0
0
LINE
5
37f2
8
0-1
6
CONTINUOUS
62
  7
10
751.347
20
764.097
30
0.0
11
751.056
21
763.659
31
0.0
0
LINE
5
37f3
8
0-1
6
CONTINUOUS
62
  7
10
751.056
20
763.659
30
0.0
11
750.758
21
763.221
31
0.0
0
LINE
5
37f4
8
0-1
6
CONTINUOUS
62
  7
10
750.758
20
763.221
30
0.0
11
750.452
21
762.785
31
0.0
0
LINE
5
37f5
8
0-1
6
CONTINUOUS
62
  7
10
750.452
20
762.785
30
0.0
11
750.139
21
762.350
31
0.0
0
LINE
5
37f6
8
0-1
6
CONTINUOUS
62
  7
10
750.139
20
762.350
30
0.0
11
749.819
21
761.915
31
0.0
0
LINE
5
37f7
8
0-1
6
CONTINUOUS
62
  7
10
749.819
20
761.915
30
0.0
11
749.491
21
761.481
31
0.0
0
LINE
5
37f8
8
0-1
6
CONTINUOUS
62
  7
10
749.491
20
761.481
30
0.0
11
749.156
21
761.048
31
0.0
0
LINE
5
37f9
8
0-1
6
CONTINUOUS
62
  7
10
749.156
20
761.048
30
0.0
11
748.814
21
760.615
31
0.0
0
LINE
5
37fa
8
0-1
6
CONTINUOUS
62
  7
10
748.814
20
760.615
30
0.0
11
748.464
21
760.184
31
0.0
0
LINE
5
37fb
8
0-1
6
CONTINUOUS
62
  7
10
748.464
20
760.184
30
0.0
11
748.107
21
759.754
31
0.0
0
LINE
5
37fc
8
0-1
6
CONTINUOUS
62
  7
10
748.107
20
759.754
30
0.0
11
747.742
21
759.326
31
0.0
0
LINE
5
37fd
8
0-1
6
CONTINUOUS
62
  7
10
747.742
20
759.326
30
0.0
11
747.369
21
758.899
31
0.0
0
LINE
5
37fe
8
0-1
6
CONTINUOUS
62
  7
10
747.369
20
758.899
30
0.0
11
746.987
21
758.476
31
0.0
0
LINE
5
37ff
8
0-1
6
CONTINUOUS
62
  7
10
746.987
20
758.476
30
0.0
11
746.596
21
758.055
31
0.0
0
LINE
5
3800
8
0-1
6
CONTINUOUS
62
  7
10
746.596
20
758.055
30
0.0
11
746.196
21
757.638
31
0.0
0
LINE
5
3801
8
0-1
6
CONTINUOUS
62
  7
10
746.196
20
757.638
30
0.0
11
745.786
21
757.226
31
0.0
0
LINE
5
3802
8
0-1
6
CONTINUOUS
62
  7
10
745.786
20
757.226
30
0.0
11
745.367
21
756.819
31
0.0
0
LINE
5
3803
8
0-1
6
CONTINUOUS
62
  7
10
745.367
20
756.819
30
0.0
11
744.937
21
756.419
31
0.0
0
LINE
5
3804
8
0-1
6
CONTINUOUS
62
  7
10
744.937
20
756.419
30
0.0
11
744.498
21
756.029
31
0.0
0
LINE
5
3805
8
0-1
6
CONTINUOUS
62
  7
10
744.498
20
756.029
30
0.0
11
744.050
21
755.650
31
0.0
0
LINE
5
3806
8
0-1
6
CONTINUOUS
62
  7
10
744.050
20
755.650
30
0.0
11
743.595
21
755.285
31
0.0
0
LINE
5
3807
8
0-1
6
CONTINUOUS
62
  7
10
743.595
20
755.285
30
0.0
11
743.135
21
754.939
31
0.0
0
LINE
5
3808
8
0-1
6
CONTINUOUS
62
  7
10
743.135
20
754.939
30
0.0
11
742.674
21
754.616
31
0.0
0
LINE
5
3809
8
0-1
6
CONTINUOUS
62
  7
10
742.674
20
754.616
30
0.0
11
742.216
21
754.324
31
0.0
0
LINE
5
380a
8
0-1
6
CONTINUOUS
62
  7
10
1089.648
20
784.324
30
0.0
11
1089.750
21
783.267
31
0.0
0
LINE
5
380b
8
0-1
6
CONTINUOUS
62
  7
10
1089.750
20
783.267
30
0.0
11
1089.865
21
782.211
31
0.0
0
LINE
5
380c
8
0-1
6
CONTINUOUS
62
  7
10
1089.865
20
782.211
30
0.0
11
1089.992
21
781.172
31
0.0
0
LINE
5
380d
8
0-1
6
CONTINUOUS
62
  7
10
1089.992
20
781.172
30
0.0
11
1090.127
21
780.159
31
0.0
0
LINE
5
380e
8
0-1
6
CONTINUOUS
62
  7
10
1090.127
20
780.159
30
0.0
11
1090.271
21
779.181
31
0.0
0
LINE
5
380f
8
0-1
6
CONTINUOUS
62
  7
10
1090.271
20
779.181
30
0.0
11
1090.422
21
778.240
31
0.0
0
LINE
5
3810
8
0-1
6
CONTINUOUS
62
  7
10
1090.422
20
778.240
30
0.0
11
1090.578
21
777.340
31
0.0
0
LINE
5
3811
8
0-1
6
CONTINUOUS
62
  7
10
1090.578
20
777.340
30
0.0
11
1090.739
21
776.481
31
0.0
0
LINE
5
3812
8
0-1
6
CONTINUOUS
62
  7
10
1090.739
20
776.481
30
0.0
11
1090.905
21
775.662
31
0.0
0
LINE
5
3813
8
0-1
6
CONTINUOUS
62
  7
10
1090.905
20
775.662
30
0.0
11
1091.076
21
774.882
31
0.0
0
LINE
5
3814
8
0-1
6
CONTINUOUS
62
  7
10
1091.076
20
774.882
30
0.0
11
1091.251
21
774.139
31
0.0
0
LINE
5
3815
8
0-1
6
CONTINUOUS
62
  7
10
1091.251
20
774.139
30
0.0
11
1091.430
21
773.431
31
0.0
0
LINE
5
3816
8
0-1
6
CONTINUOUS
62
  7
10
1091.430
20
773.431
30
0.0
11
1091.612
21
772.755
31
0.0
0
LINE
5
3817
8
0-1
6
CONTINUOUS
62
  7
10
1091.612
20
772.755
30
0.0
11
1091.799
21
772.110
31
0.0
0
LINE
5
3818
8
0-1
6
CONTINUOUS
62
  7
10
1091.799
20
772.110
30
0.0
11
1091.990
21
771.492
31
0.0
0
LINE
5
3819
8
0-1
6
CONTINUOUS
62
  7
10
1091.990
20
771.492
30
0.0
11
1092.185
21
770.899
31
0.0
0
LINE
5
381a
8
0-1
6
CONTINUOUS
62
  7
10
1092.185
20
770.899
30
0.0
11
1092.385
21
770.328
31
0.0
0
LINE
5
381b
8
0-1
6
CONTINUOUS
62
  7
10
1092.385
20
770.328
30
0.0
11
1092.589
21
769.779
31
0.0
0
LINE
5
381c
8
0-1
6
CONTINUOUS
62
  7
10
1092.589
20
769.779
30
0.0
11
1092.799
21
769.247
31
0.0
0
LINE
5
381d
8
0-1
6
CONTINUOUS
62
  7
10
1092.799
20
769.247
30
0.0
11
1093.014
21
768.731
31
0.0
0
LINE
5
381e
8
0-1
6
CONTINUOUS
62
  7
10
1093.014
20
768.731
30
0.0
11
1093.234
21
768.230
31
0.0
0
LINE
5
381f
8
0-1
6
CONTINUOUS
62
  7
10
1093.234
20
768.230
30
0.0
11
1093.460
21
767.741
31
0.0
0
LINE
5
3820
8
0-1
6
CONTINUOUS
62
  7
10
1093.460
20
767.741
30
0.0
11
1093.693
21
767.262
31
0.0
0
LINE
5
3821
8
0-1
6
CONTINUOUS
62
  7
10
1093.693
20
767.262
30
0.0
11
1093.932
21
766.793
31
0.0
0
LINE
5
3822
8
0-1
6
CONTINUOUS
62
  7
10
1093.932
20
766.793
30
0.0
11
1094.178
21
766.332
31
0.0
0
LINE
5
3823
8
0-1
6
CONTINUOUS
62
  7
10
1094.178
20
766.332
30
0.0
11
1094.432
21
765.876
31
0.0
0
LINE
5
3824
8
0-1
6
CONTINUOUS
62
  7
10
1094.432
20
765.876
30
0.0
11
1094.692
21
765.426
31
0.0
0
LINE
5
3825
8
0-1
6
CONTINUOUS
62
  7
10
1094.692
20
765.426
30
0.0
11
1094.960
21
764.980
31
0.0
0
LINE
5
3826
8
0-1
6
CONTINUOUS
62
  7
10
1094.960
20
764.980
30
0.0
11
1095.235
21
764.537
31
0.0
0
LINE
5
3827
8
0-1
6
CONTINUOUS
62
  7
10
1095.235
20
764.537
30
0.0
11
1095.518
21
764.097
31
0.0
0
LINE
5
3828
8
0-1
6
CONTINUOUS
62
  7
10
1095.518
20
764.097
30
0.0
11
1095.809
21
763.659
31
0.0
0
LINE
5
3829
8
0-1
6
CONTINUOUS
62
  7
10
1095.809
20
763.659
30
0.0
11
1096.107
21
763.221
31
0.0
0
LINE
5
382a
8
0-1
6
CONTINUOUS
62
  7
10
1096.107
20
763.221
30
0.0
11
1096.412
21
762.785
31
0.0
0
LINE
5
382b
8
0-1
6
CONTINUOUS
62
  7
10
1096.412
20
762.785
30
0.0
11
1096.725
21
762.350
31
0.0
0
LINE
5
382c
8
0-1
6
CONTINUOUS
62
  7
10
1096.725
20
762.350
30
0.0
11
1097.046
21
761.915
31
0.0
0
LINE
5
382d
8
0-1
6
CONTINUOUS
62
  7
10
1097.046
20
761.915
30
0.0
11
1097.373
21
761.481
31
0.0
0
LINE
5
382e
8
0-1
6
CONTINUOUS
62
  7
10
1097.373
20
761.481
30
0.0
11
1097.708
21
761.048
31
0.0
0
LINE
5
382f
8
0-1
6
CONTINUOUS
62
  7
10
1097.708
20
761.048
30
0.0
11
1098.051
21
760.615
31
0.0
0
LINE
5
3830
8
0-1
6
CONTINUOUS
62
  7
10
1098.051
20
760.615
30
0.0
11
1098.401
21
760.184
31
0.0
0
LINE
5
3831
8
0-1
6
CONTINUOUS
62
  7
10
1098.401
20
760.184
30
0.0
11
1098.758
21
759.754
31
0.0
0
LINE
5
3832
8
0-1
6
CONTINUOUS
62
  7
10
1098.758
20
759.754
30
0.0
11
1099.123
21
759.326
31
0.0
0
LINE
5
3833
8
0-1
6
CONTINUOUS
62
  7
10
1099.123
20
759.326
30
0.0
11
1099.496
21
758.899
31
0.0
0
LINE
5
3834
8
0-1
6
CONTINUOUS
62
  7
10
1099.496
20
758.899
30
0.0
11
1099.878
21
758.476
31
0.0
0
LINE
5
3835
8
0-1
6
CONTINUOUS
62
  7
10
1099.878
20
758.476
30
0.0
11
1100.268
21
758.055
31
0.0
0
LINE
5
3836
8
0-1
6
CONTINUOUS
62
  7
10
1100.268
20
758.055
30
0.0
11
1100.669
21
757.638
31
0.0
0
LINE
5
3837
8
0-1
6
CONTINUOUS
62
  7
10
1100.669
20
757.638
30
0.0
11
1101.079
21
757.226
31
0.0
0
LINE
5
3838
8
0-1
6
CONTINUOUS
62
  7
10
1101.079
20
757.226
30
0.0
11
1101.498
21
756.819
31
0.0
0
LINE
5
3839
8
0-1
6
CONTINUOUS
62
  7
10
1101.498
20
756.819
30
0.0
11
1101.927
21
756.419
31
0.0
0
LINE
5
383a
8
0-1
6
CONTINUOUS
62
  7
10
1101.927
20
756.419
30
0.0
11
1102.367
21
756.029
31
0.0
0
LINE
5
383b
8
0-1
6
CONTINUOUS
62
  7
10
1102.367
20
756.029
30
0.0
11
1102.815
21
755.650
31
0.0
0
LINE
5
383c
8
0-1
6
CONTINUOUS
62
  7
10
1102.815
20
755.650
30
0.0
11
1103.269
21
755.285
31
0.0
0
LINE
5
383d
8
0-1
6
CONTINUOUS
62
  7
10
1103.269
20
755.285
30
0.0
11
1103.729
21
754.939
31
0.0
0
LINE
5
383e
8
0-1
6
CONTINUOUS
62
  7
10
1103.729
20
754.939
30
0.0
11
1104.191
21
754.616
31
0.0
0
LINE
5
383f
8
0-1
6
CONTINUOUS
62
  7
10
1104.191
20
754.616
30
0.0
11
1104.649
21
754.324
31
0.0
0
LINE
5
3840
8
0-1
6
CONTINUOUS
62
  7
10
742.216
20
754.324
30
0.0
11
616.216
21
754.324
31
0.0
0
LINE
5
3841
8
0-1
6
CONTINUOUS
62
  7
10
1230.648
20
754.324
30
0.0
11
1104.649
21
754.324
31
0.0
0
LINE
5
3842
8
0-1
6
CONTINUOUS
62
  7
10
1089.648
20
1056.324
30
0.0
11
1089.648
21
784.324
31
0.0
0
LINE
5
3843
8
0-1
6
CONTINUOUS
62
  7
10
1217.211
20
789.324
30
0.0
11
1217.472
21
788.616
31
0.0
0
LINE
5
3844
8
0-1
6
CONTINUOUS
62
  7
10
1217.472
20
788.616
30
0.0
11
1217.739
21
787.920
31
0.0
0
LINE
5
3845
8
0-1
6
CONTINUOUS
62
  7
10
1217.739
20
787.920
30
0.0
11
1218.015
21
787.235
31
0.0
0
LINE
5
3846
8
0-1
6
CONTINUOUS
62
  7
10
1218.015
20
787.235
30
0.0
11
1218.302
21
786.555
31
0.0
0
LINE
5
3847
8
0-1
6
CONTINUOUS
62
  7
10
1218.302
20
786.555
30
0.0
11
1218.601
21
785.878
31
0.0
0
LINE
5
3848
8
0-1
6
CONTINUOUS
62
  7
10
1218.601
20
785.878
30
0.0
11
1218.912
21
785.203
31
0.0
0
LINE
5
3849
8
0-1
6
CONTINUOUS
62
  7
10
1218.912
20
785.203
30
0.0
11
1219.236
21
784.528
31
0.0
0
LINE
5
384a
8
0-1
6
CONTINUOUS
62
  7
10
1219.236
20
784.528
30
0.0
11
1219.573
21
783.852
31
0.0
0
LINE
5
384b
8
0-1
6
CONTINUOUS
62
  7
10
1219.573
20
783.852
30
0.0
11
1219.921
21
783.174
31
0.0
0
LINE
5
384c
8
0-1
6
CONTINUOUS
62
  7
10
1219.921
20
783.174
30
0.0
11
1220.283
21
782.495
31
0.0
0
LINE
5
384d
8
0-1
6
CONTINUOUS
62
  7
10
1220.283
20
782.495
30
0.0
11
1220.656
21
781.814
31
0.0
0
LINE
5
384e
8
0-1
6
CONTINUOUS
62
  7
10
1220.656
20
781.814
30
0.0
11
1221.040
21
781.132
31
0.0
0
LINE
5
384f
8
0-1
6
CONTINUOUS
62
  7
10
1221.040
20
781.132
30
0.0
11
1221.435
21
780.449
31
0.0
0
LINE
5
3850
8
0-1
6
CONTINUOUS
62
  7
10
1221.435
20
780.449
30
0.0
11
1221.840
21
779.764
31
0.0
0
LINE
5
3851
8
0-1
6
CONTINUOUS
62
  7
10
1221.840
20
779.764
30
0.0
11
1222.255
21
779.080
31
0.0
0
LINE
5
3852
8
0-1
6
CONTINUOUS
62
  7
10
1222.255
20
779.080
30
0.0
11
1222.678
21
778.395
31
0.0
0
LINE
5
3853
8
0-1
6
CONTINUOUS
62
  7
10
1222.678
20
778.395
30
0.0
11
1223.111
21
777.710
31
0.0
0
LINE
5
3854
8
0-1
6
CONTINUOUS
62
  7
10
1223.111
20
777.710
30
0.0
11
1223.553
21
777.025
31
0.0
0
LINE
5
3855
8
0-1
6
CONTINUOUS
62
  7
10
1223.553
20
777.025
30
0.0
11
1224.004
21
776.340
31
0.0
0
LINE
5
3856
8
0-1
6
CONTINUOUS
62
  7
10
1224.004
20
776.340
30
0.0
11
1224.464
21
775.655
31
0.0
0
LINE
5
3857
8
0-1
6
CONTINUOUS
62
  7
10
1224.464
20
775.655
30
0.0
11
1224.934
21
774.970
31
0.0
0
LINE
5
3858
8
0-1
6
CONTINUOUS
62
  7
10
1224.934
20
774.970
30
0.0
11
1225.415
21
774.283
31
0.0
0
LINE
5
3859
8
0-1
6
CONTINUOUS
62
  7
10
1225.415
20
774.283
30
0.0
11
1225.907
21
773.594
31
0.0
0
LINE
5
385a
8
0-1
6
CONTINUOUS
62
  7
10
1225.907
20
773.594
30
0.0
11
1226.412
21
772.901
31
0.0
0
LINE
5
385b
8
0-1
6
CONTINUOUS
62
  7
10
1226.412
20
772.901
30
0.0
11
1226.931
21
772.203
31
0.0
0
LINE
5
385c
8
0-1
6
CONTINUOUS
62
  7
10
1226.931
20
772.203
30
0.0
11
1227.467
21
771.499
31
0.0
0
LINE
5
385d
8
0-1
6
CONTINUOUS
62
  7
10
1227.467
20
771.499
30
0.0
11
1228.021
21
770.786
31
0.0
0
LINE
5
385e
8
0-1
6
CONTINUOUS
62
  7
10
1228.021
20
770.786
30
0.0
11
1228.597
21
770.062
31
0.0
0
LINE
5
385f
8
0-1
6
CONTINUOUS
62
  7
10
1228.597
20
770.062
30
0.0
11
1229.195
21
769.324
31
0.0
0
LINE
5
3860
8
0-1
6
CONTINUOUS
62
  7
10
1219.236
20
784.324
30
0.0
11
1089.648
21
784.324
31
0.0
0
LINE
5
3861
8
0-1
6
CONTINUOUS
62
  7
10
1191.346
20
1056.324
30
0.0
11
1217.211
21
789.324
31
0.0
0
LINE
5
3862
8
0-1
6
CONTINUOUS
62
  7
10
1199.648
20
1256.757
30
0.0
11
1089.648
21
1256.757
31
0.0
0
LINE
5
3863
8
0-1
6
CONTINUOUS
62
  7
10
1199.648
20
1114.865
30
0.0
11
1199.648
21
1256.757
31
0.0
0
LINE
5
3864
8
0-1
6
CONTINUOUS
62
  7
10
1089.648
20
1114.865
30
0.0
11
1089.648
21
1256.757
31
0.0
0
LINE
5
3865
8
0-1
6
CONTINUOUS
62
  7
10
726.216
20
1256.757
30
0.0
11
616.216
21
1256.757
31
0.0
0
LINE
5
3866
8
0-1
6
CONTINUOUS
62
  7
10
726.216
20
1114.865
30
0.0
11
726.216
21
1256.757
31
0.0
0
LINE
5
3867
8
0-1
6
CONTINUOUS
62
  7
10
616.216
20
1114.865
30
0.0
11
616.216
21
1256.757
31
0.0
0
LINE
5
3868
8
0-1
6
CONTINUOUS
62
  7
10
1230.648
20
632.432
30
0.0
11
1089.648
21
632.432
31
0.0
0
LINE
5
3869
8
0-1
6
CONTINUOUS
62
  7
10
1230.648
20
713.514
30
0.0
11
1230.648
21
632.432
31
0.0
0
LINE
5
386a
8
0-1
6
CONTINUOUS
62
  7
10
1089.648
20
713.514
30
0.0
11
1089.648
21
632.432
31
0.0
0
LINE
5
386b
8
0-1
6
CONTINUOUS
62
  7
10
757.216
20
632.432
30
0.0
11
616.216
21
632.432
31
0.0
0
LINE
5
386c
8
0-1
6
CONTINUOUS
62
  7
10
757.216
20
713.514
30
0.0
11
757.216
21
632.432
31
0.0
0
LINE
5
386d
8
0-1
6
CONTINUOUS
62
  7
10
616.216
20
713.514
30
0.0
11
616.216
21
632.432
31
0.0
0
LINE
5
386e
8
0-1
6
CONTINUOUS
62
  7
10
879.730
20
1074.324
30
0.0
11
879.730
21
754.324
31
0.0
0
LINE
5
386f
8
0-1
6
CONTINUOUS
62
  7
10
806.757
20
1074.324
30
0.0
11
879.730
21
1074.324
31
0.0
0
LINE
5
3870
8
0-1
6
CONTINUOUS
62
  7
10
806.757
20
754.324
30
0.0
11
879.730
21
754.324
31
0.0
0
LINE
5
3871
8
ADD_LINE
6
HIDDEN
62
  3
10
616.216
20
536.530
30
0.0
11
616.216
21
513.847
31
0.0
0
LINE
5
3872
8
ADD_LINE
6
HIDDEN
62
  3
10
600.500
20
522.863
30
0.0
11
637.166
21
522.863
31
0.0
0
LINE
5
3873
8
0-2
6
CONTINUOUS
62
  7
10
879.730
20
547.863
30
0.0
11
879.730
21
406.863
31
0.0
0
LINE
5
3874
8
0-2
6
CONTINUOUS
62
  7
10
806.757
20
547.863
30
0.0
11
879.730
21
547.863
31
0.0
0
LINE
5
3875
8
0-2
6
CONTINUOUS
62
  7
10
806.757
20
406.863
30
0.0
11
879.730
21
406.863
31
0.0
0
LINE
5
3876
8
0-2
6
CONTINUOUS
62
  7
10
616.216
20
251.351
30
0.0
11
757.216
21
251.351
31
0.0
0
LINE
5
3877
8
0-2
6
CONTINUOUS
62
  7
10
616.216
20
336.487
30
0.0
11
616.216
21
251.351
31
0.0
0
LINE
5
3878
8
0-2
6
CONTINUOUS
62
  7
10
757.216
20
336.487
30
0.0
11
757.216
21
251.351
31
0.0
0
ARC
5
3879
8
0-0
6
CONTINUOUS
62
  7
10
736.808
20
527.455
30
0.0
40
20.413
50
361.146759
51
448.853424
0
ARC
5
387a
8
0-0
6
CONTINUOUS
62
  7
10
703.132
20
493.779
30
0.0
40
39.085
50
360.283478
51
449.716614
0
ARC
5
387b
8
0-0
6
CONTINUOUS
62
  7
10
574.770
20
365.417
30
0.0
40
165.639
50
378.095123
51
431.904938
0
ARC
5
387c
8
0-1
6
CONTINUOUS
62
  7
10
728.903
20
1060.824
30
0.0
40
6.586
50
496.899231
51
223.099976
0
ARC
5
387d
8
0-1
6
CONTINUOUS
62
  7
10
626.911
20
1060.824
30
0.0
40
4.553
50
458.777161
51
261.222595
0
CIRCLE
5
387e
8
0-1
6
CONTINUOUS
62
  7
10
661.216
20
984.324
30
0.0
40
3.000
0
CIRCLE
5
387f
8
0-1
6
CONTINUOUS
62
  7
10
666.216
20
864.324
30
0.0
40
3.000
0
ARC
5
3880
8
0-1
6
CONTINUOUS
62
  7
10
1086.954
20
1060.824
30
0.0
40
7.258
50
321.683411
51
398.317383
0
ARC
5
3881
8
0-1
6
CONTINUOUS
62
  7
10
1187.743
20
1060.518
30
0.0
40
5.528
50
310.663452
51
420.403931
0
CIRCLE
5
3882
8
0-1
6
CONTINUOUS
62
  7
10
1163.156
20
984.324
30
0.0
40
3.000
0
CIRCLE
5
3883
8
0-1
6
CONTINUOUS
62
  7
10
1169.758
20
864.324
30
0.0
40
3.000
0
CIRCLE
5
3884
8
ADD_LINE
6
HIDDEN
62
  3
10
616.216
20
522.863
30
0.0
40
3.000
0
TEXT
5
3885
100
AcDbEntity
8
0-1
62
7
100
AcDbText
10
1135.273
20
1259.257
30
0.0
40
9.750
41
0.800
50
0.000
1
110
100
AcDbText
0
TEXT
5
3886
100
AcDbEntity
8
0-1
62
7
100
AcDbText
10
661.841
20
1259.257
30
0.0
40
9.750
41
0.800
50
0.000
1
110
100
AcDbText
0
TEXT
5
3887
100
AcDbEntity
8
0-1
62
7
100
AcDbText
10
1150.773
20
634.932
30
0.0
40
9.750
41
0.800
50
0.000
1
141
100
AcDbText
0
TEXT
5
3888
100
AcDbEntity
8
0-1
62
7
100
AcDbText
10
677.341
20
634.932
30
0.0
40
9.750
41
0.800
50
0.000
1
141
100
AcDbText
0
TEXT
5
3889
100
AcDbEntity
8
0-1
62
7
100
AcDbText
10
877.230
20
904.949
30
0.0
40
9.750
41
0.800
50
90.000
1
320
100
AcDbText
0
TEXT
5
388a
100
AcDbEntity
8
0-2
62
7
100
AcDbText
10
877.230
20
467.988
30
0.0
40
9.750
41
0.800
50
90.000
1
141
100
AcDbText
0
TEXT
5
388b
100
AcDbEntity
8
0-2
62
7
100
AcDbText
10
677.341
20
253.851
30
0.0
40
9.750
41
0.800
50
0.000
1
141
100
AcDbText
0
POINT
5
388c
8
0-1
62
  7
10
1199.648
20
1256.757
30
0.0
0
POINT
5
388d
8
0-1
62
  7
10
1089.648
20
1256.757
30
0.0
0
POINT
5
388e
8
0-1
62
  7
10
726.216
20
1256.757
30
0.0
0
POINT
5
388f
8
0-1
62
  7
10
616.216
20
1256.757
30
0.0
0
POINT
5
3890
8
0-1
62
  7
10
1230.648
20
632.432
30
0.0
0
POINT
5
3891
8
0-1
62
  7
10
1089.648
20
632.432
30
0.0
0
POINT
5
3892
8
0-1
62
  7
10
757.216
20
632.432
30
0.0
0
POINT
5
3893
8
0-1
62
  7
10
616.216
20
632.432
30
0.0
0
POINT
5
3894
8
0-1
62
  7
10
879.730
20
1074.324
30
0.0
0
POINT
5
3895
8
0-1
62
  7
10
879.730
20
754.324
30
0.0
0
POINT
5
3896
8
0-2
62
  7
10
879.730
20
547.863
30
0.0
0
POINT
5
3897
8
0-2
62
  7
10
879.730
20
406.863
30
0.0
0
POINT
5
3898
8
0-2
62
  7
10
616.216
20
251.351
30
0.0
0
POINT
5
3899
8
0-2
62
  7
10
757.216
20
251.351
30
0.0
0
ENDSEC
0
EOF
