0
SECTION
2
HEADER
  9
$EXTMIN
10
0
20
0
30
0
  9
$EXTMAX
10
1489.106
20
1311.960
30
0
  9
$LTSCALE
40
5.000
  9
$DIMSCALE
40
5.000
  9
$PDMODE
70
0
  9
$PDSIZE
40
40
0
ENDSEC
0
SECTION
2
TABLES
0
TABLE
2
LTYPE
70
9
0
LTYPE
5
1f4
2
CONTINUOUS
70
0
3
実線
72
65
73
0
40
0.0
0
LTYPE
5
1f5
2
DOT
70
0
3
--  --  --  --  --  --  --  --     
72
65
73
2
40
5.000
49
1.000
49
-4.000
0
LTYPE
5
1f6
2
DASHED
70
0
3
----    ----    ----    ----    
72
65
73
2
40
5.000
49
2.000
49
-3.000
0
LTYPE
5
1f7
2
DASHED2
70
0
3
------  ------  ------  ------ 
72
65
73
2
40
10.000
49
4.000
49
-6.000
0
LTYPE
5
1f8
2
CENTER
70
0
3
----- - ----- - ----- - ----- - 
72
65
73
4
40
9.000
49
6.000
49
-1.000
49
1.000
49
-1.000
0
LTYPE
5
1f9
2
CENTER2
70
0
3
----------  --  ----------  -- 
72
65
73
4
40
18.000
49
12.000
49
-2.000
49
2.000
49
-2.000
0
LTYPE
5
1fa
2
PHANTOM
70
0
3
--- - - --- - - --- - - --- - -
72
65
73
6
40
10.000
49
5.000
49
-1.000
49
1.000
49
-1.000
49
1.000
49
-1.000
0
LTYPE
5
1fb
2
PHANTOM2
70
0
3
--------  -  -  --------  -  -
72
65
73
6
40
16.000
49
6.000
49
-2.000
49
2.000
49
-2.000
49
2.000
49
-2.000
0
LTYPE
5
1fc
2
HIDDEN
70
0
3
-   -   -   -   -   -   -   -   
72
65
73
2
40
2.500
49
0.500
49
-2.000
0
ENDTAB
0
TABLE
2
STYLE
70
1
0
STYLE
5
1fd
100
AcDbSymbolTableRecord
100
AcDbTextStyleTableRecord
2
STANDARD
70
0
40
0.0
41
1.0
50
0.0
71
0
42
0.0
3
txt.shx
4
extfont.shx
0
STYLE
5
1fe
100
AcDbSymbolTableRecord
100
AcDbTextStyleTableRecord
2
TATEGAKI
70
4
40
0.0
41
1.0
50
0.0
71
0
42
0.0
3
txt.shx
4
extfont.shx
0
STYLE
5
1ff
100
AcDbSymbolTableRecord
100
AcDbTextStyleTableRecord
2
MT
70
0
40
0.0
41
1.0
50
0.0
71
0
42
0.0
3
MS Mincho
4

0
STYLE
5
200
100
AcDbSymbolTableRecord
100
AcDbTextStyleTableRecord
2
TMT
70
4
40
0.0
41
1.0
50
0.0
71
0
42
0.0
3
@MS Mincho
4

0
ENDTAB
0
TABLE
2
LAYER
5
389a
100
AcDbSymbolTable
70
10
0
LAYER
5
389b
100
AcDbSymbolTableRecord
100
AcDbLayerTableRecord
2
0
70
64
62
  7
  6
CONTINUOUS
0
LAYER
5
389c
100
AcDbSymbolTableRecord
100
AcDbLayerTableRecord
2
0-0
70
64
62
  7
  6
CONTINUOUS
0
LAYER
5
389d
100
AcDbSymbolTableRecord
100
AcDbLayerTableRecord
2
0-1
70
64
62
  7
  6
CONTINUOUS
0
LAYER
5
389e
100
AcDbSymbolTableRecord
100
AcDbLayerTableRecord
2
0-2
70
64
62
  7
  6
CONTINUOUS
0
LAYER
5
389f
100
AcDbSymbolTableRecord
100
AcDbLayerTableRecord
2
ADD_LINE
70
64
62
  -7
  6
CONTINUOUS
0
ENDTAB
0
ENDSEC
0
SECTION
2
ENTITIES
0
LINE
5
38a0
8
0-0
6
CONTINUOUS
62
  7
10
1089.757
20
1058.108
30
0.0
11
1089.757
21
853.108
31
0.0
0
LINE
5
38a1
8
0-1
6
CONTINUOUS
62
  7
10
1076.757
20
1058.108
30
0.0
11
1076.757
21
853.108
31
0.0
0
LINE
5
38a2
8
0-1
6
CONTINUOUS
62
  7
10
1066.757
20
1058.108
30
0.0
11
1066.757
21
853.108
31
0.0
0
LINE
5
38a3
8
0-0
6
CONTINUOUS
62
  4
10
746.757
20
955.608
30
0.0
11
1089.757
21
955.608
31
0.0
0
LINE
5
38a4
8
0-0
6
CONTINUOUS
62
  7
10
1089.757
20
653.783
30
0.0
11
1089.757
21
547.783
31
0.0
0
LINE
5
38a5
8
0-0
6
CONTINUOUS
62
  7
10
1076.757
20
653.783
30
0.0
11
1076.757
21
547.783
31
0.0
0
LINE
5
38a6
8
0-0
6
CONTINUOUS
62
  7
10
1066.757
20
653.783
30
0.0
11
1066.757
21
547.783
31
0.0
0
LINE
5
38a7
8
0-0
6
CONTINUOUS
62
  7
10
1076.757
20
653.783
30
0.0
11
1089.757
21
653.783
31
0.0
0
LINE
5
38a8
8
0-0
6
CONTINUOUS
62
  7
10
787.757
20
580.783
30
0.0
11
788.312
21
580.726
31
0.0
0
LINE
5
38a9
8
0-0
6
CONTINUOUS
62
  7
10
788.312
20
580.726
30
0.0
11
788.856
21
580.669
31
0.0
0
LINE
5
38aa
8
0-0
6
CONTINUOUS
62
  7
10
788.856
20
580.669
30
0.0
11
789.389
21
580.610
31
0.0
0
LINE
5
38ab
8
0-0
6
CONTINUOUS
62
  7
10
789.389
20
580.610
30
0.0
11
789.910
21
580.549
31
0.0
0
LINE
5
38ac
8
0-0
6
CONTINUOUS
62
  7
10
789.910
20
580.549
30
0.0
11
790.417
21
580.483
31
0.0
0
LINE
5
38ad
8
0-0
6
CONTINUOUS
62
  7
10
790.417
20
580.483
30
0.0
11
790.911
21
580.412
31
0.0
0
LINE
5
38ae
8
0-0
6
CONTINUOUS
62
  7
10
790.911
20
580.412
30
0.0
11
791.392
21
580.334
31
0.0
0
LINE
5
38af
8
0-0
6
CONTINUOUS
62
  7
10
791.392
20
580.334
30
0.0
11
791.861
21
580.249
31
0.0
0
LINE
5
38b0
8
0-0
6
CONTINUOUS
62
  7
10
791.861
20
580.249
30
0.0
11
792.320
21
580.156
31
0.0
0
LINE
5
38b1
8
0-0
6
CONTINUOUS
62
  7
10
792.320
20
580.156
30
0.0
11
792.769
21
580.054
31
0.0
0
LINE
5
38b2
8
0-0
6
CONTINUOUS
62
  7
10
792.769
20
580.054
30
0.0
11
793.209
21
579.941
31
0.0
0
LINE
5
38b3
8
0-0
6
CONTINUOUS
62
  7
10
793.209
20
579.941
30
0.0
11
793.643
21
579.817
31
0.0
0
LINE
5
38b4
8
0-0
6
CONTINUOUS
62
  7
10
793.643
20
579.817
30
0.0
11
794.072
21
579.681
31
0.0
0
LINE
5
38b5
8
0-0
6
CONTINUOUS
62
  7
10
794.072
20
579.681
30
0.0
11
794.498
21
579.532
31
0.0
0
LINE
5
38b6
8
0-0
6
CONTINUOUS
62
  7
10
794.498
20
579.532
30
0.0
11
794.922
21
579.370
31
0.0
0
LINE
5
38b7
8
0-0
6
CONTINUOUS
62
  7
10
794.922
20
579.370
30
0.0
11
795.345
21
579.194
31
0.0
0
LINE
5
38b8
8
0-0
6
CONTINUOUS
62
  7
10
795.345
20
579.194
30
0.0
11
795.770
21
579.004
31
0.0
0
LINE
5
38b9
8
0-0
6
CONTINUOUS
62
  7
10
795.770
20
579.004
30
0.0
11
796.196
21
578.799
31
0.0
0
LINE
5
38ba
8
0-0
6
CONTINUOUS
62
  7
10
796.196
20
578.799
30
0.0
11
796.625
21
578.580
31
0.0
0
LINE
5
38bb
8
0-0
6
CONTINUOUS
62
  7
10
796.625
20
578.580
30
0.0
11
797.057
21
578.346
31
0.0
0
LINE
5
38bc
8
0-0
6
CONTINUOUS
62
  7
10
797.057
20
578.346
30
0.0
11
797.492
21
578.099
31
0.0
0
LINE
5
38bd
8
0-0
6
CONTINUOUS
62
  7
10
797.492
20
578.099
30
0.0
11
797.930
21
577.837
31
0.0
0
LINE
5
38be
8
0-0
6
CONTINUOUS
62
  7
10
797.930
20
577.837
30
0.0
11
798.370
21
577.562
31
0.0
0
LINE
5
38bf
8
0-0
6
CONTINUOUS
62
  7
10
798.370
20
577.562
30
0.0
11
798.813
21
577.275
31
0.0
0
LINE
5
38c0
8
0-0
6
CONTINUOUS
62
  7
10
798.813
20
577.275
30
0.0
11
799.256
21
576.977
31
0.0
0
LINE
5
38c1
8
0-0
6
CONTINUOUS
62
  7
10
799.256
20
576.977
30
0.0
11
799.699
21
576.668
31
0.0
0
LINE
5
38c2
8
0-0
6
CONTINUOUS
62
  7
10
799.699
20
576.668
30
0.0
11
800.139
21
576.350
31
0.0
0
LINE
5
38c3
8
0-0
6
CONTINUOUS
62
  7
10
800.139
20
576.350
30
0.0
11
800.576
21
576.024
31
0.0
0
LINE
5
38c4
8
0-0
6
CONTINUOUS
62
  7
10
800.576
20
576.024
30
0.0
11
801.006
21
575.691
31
0.0
0
LINE
5
38c5
8
0-0
6
CONTINUOUS
62
  7
10
801.006
20
575.691
30
0.0
11
801.429
21
575.353
31
0.0
0
LINE
5
38c6
8
0-0
6
CONTINUOUS
62
  7
10
801.429
20
575.353
30
0.0
11
801.843
21
575.010
31
0.0
0
LINE
5
38c7
8
0-0
6
CONTINUOUS
62
  7
10
801.843
20
575.010
30
0.0
11
802.245
21
574.663
31
0.0
0
LINE
5
38c8
8
0-0
6
CONTINUOUS
62
  7
10
802.245
20
574.663
30
0.0
11
802.634
21
574.314
31
0.0
0
LINE
5
38c9
8
0-0
6
CONTINUOUS
62
  7
10
802.634
20
574.314
30
0.0
11
803.008
21
573.963
31
0.0
0
LINE
5
38ca
8
0-0
6
CONTINUOUS
62
  7
10
803.008
20
573.963
30
0.0
11
803.366
21
573.611
31
0.0
0
LINE
5
38cb
8
0-0
6
CONTINUOUS
62
  7
10
803.366
20
573.611
30
0.0
11
803.707
21
573.257
31
0.0
0
LINE
5
38cc
8
0-0
6
CONTINUOUS
62
  7
10
803.707
20
573.257
30
0.0
11
804.030
21
572.901
31
0.0
0
LINE
5
38cd
8
0-0
6
CONTINUOUS
62
  7
10
804.030
20
572.901
30
0.0
11
804.334
21
572.544
31
0.0
0
LINE
5
38ce
8
0-0
6
CONTINUOUS
62
  7
10
804.334
20
572.544
30
0.0
11
804.621
21
572.183
31
0.0
0
LINE
5
38cf
8
0-0
6
CONTINUOUS
62
  7
10
804.621
20
572.183
30
0.0
11
804.889
21
571.817
31
0.0
0
LINE
5
38d0
8
0-0
6
CONTINUOUS
62
  7
10
804.889
20
571.817
30
0.0
11
805.140
21
571.445
31
0.0
0
LINE
5
38d1
8
0-0
6
CONTINUOUS
62
  7
10
805.140
20
571.445
30
0.0
11
805.375
21
571.064
31
0.0
0
LINE
5
38d2
8
0-0
6
CONTINUOUS
62
  7
10
805.375
20
571.064
30
0.0
11
805.596
21
570.671
31
0.0
0
LINE
5
38d3
8
0-0
6
CONTINUOUS
62
  7
10
805.596
20
570.671
30
0.0
11
805.804
21
570.263
31
0.0
0
LINE
5
38d4
8
0-0
6
CONTINUOUS
62
  7
10
805.804
20
570.263
30
0.0
11
806.002
21
569.834
31
0.0
0
LINE
5
38d5
8
0-0
6
CONTINUOUS
62
  7
10
806.002
20
569.834
30
0.0
11
806.192
21
569.379
31
0.0
0
LINE
5
38d6
8
0-0
6
CONTINUOUS
62
  7
10
806.192
20
569.379
30
0.0
11
806.379
21
568.891
31
0.0
0
LINE
5
38d7
8
0-0
6
CONTINUOUS
62
  7
10
806.379
20
568.891
30
0.0
11
806.566
21
568.362
31
0.0
0
LINE
5
38d8
8
0-0
6
CONTINUOUS
62
  7
10
806.566
20
568.362
30
0.0
11
806.757
21
567.783
31
0.0
0
LINE
5
38d9
8
0-0
6
CONTINUOUS
62
  7
10
746.757
20
570.783
30
0.0
11
746.982
21
572.361
31
0.0
0
LINE
5
38da
8
0-0
6
CONTINUOUS
62
  7
10
746.982
20
572.361
30
0.0
11
747.218
21
573.817
31
0.0
0
LINE
5
38db
8
0-0
6
CONTINUOUS
62
  7
10
747.218
20
573.817
30
0.0
11
747.464
21
575.165
31
0.0
0
LINE
5
38dc
8
0-0
6
CONTINUOUS
62
  7
10
747.464
20
575.165
30
0.0
11
747.720
21
576.415
31
0.0
0
LINE
5
38dd
8
0-0
6
CONTINUOUS
62
  7
10
747.720
20
576.415
30
0.0
11
747.984
21
577.578
31
0.0
0
LINE
5
38de
8
0-0
6
CONTINUOUS
62
  7
10
747.984
20
577.578
30
0.0
11
748.258
21
578.663
31
0.0
0
LINE
5
38df
8
0-0
6
CONTINUOUS
62
  7
10
748.258
20
578.663
30
0.0
11
748.540
21
579.677
31
0.0
0
LINE
5
38e0
8
0-0
6
CONTINUOUS
62
  7
10
748.540
20
579.677
30
0.0
11
748.831
21
580.627
31
0.0
0
LINE
5
38e1
8
0-0
6
CONTINUOUS
62
  7
10
748.831
20
580.627
30
0.0
11
749.129
21
581.519
31
0.0
0
LINE
5
38e2
8
0-0
6
CONTINUOUS
62
  7
10
749.129
20
581.519
30
0.0
11
749.436
21
582.359
31
0.0
0
LINE
5
38e3
8
0-0
6
CONTINUOUS
62
  7
10
749.436
20
582.359
30
0.0
11
749.750
21
583.151
31
0.0
0
LINE
5
38e4
8
0-0
6
CONTINUOUS
62
  7
10
749.750
20
583.151
30
0.0
11
750.072
21
583.900
31
0.0
0
LINE
5
38e5
8
0-0
6
CONTINUOUS
62
  7
10
750.072
20
583.900
30
0.0
11
750.400
21
584.609
31
0.0
0
LINE
5
38e6
8
0-0
6
CONTINUOUS
62
  7
10
750.400
20
584.609
30
0.0
11
750.737
21
585.281
31
0.0
0
LINE
5
38e7
8
0-0
6
CONTINUOUS
62
  7
10
750.737
20
585.281
30
0.0
11
751.079
21
585.920
31
0.0
0
LINE
5
38e8
8
0-0
6
CONTINUOUS
62
  7
10
751.079
20
585.920
30
0.0
11
751.429
21
586.527
31
0.0
0
LINE
5
38e9
8
0-0
6
CONTINUOUS
62
  7
10
751.429
20
586.527
30
0.0
11
751.786
21
587.105
31
0.0
0
LINE
5
38ea
8
0-0
6
CONTINUOUS
62
  7
10
751.786
20
587.105
30
0.0
11
752.150
21
587.656
31
0.0
0
LINE
5
38eb
8
0-0
6
CONTINUOUS
62
  7
10
752.150
20
587.656
30
0.0
11
752.521
21
588.181
31
0.0
0
LINE
5
38ec
8
0-0
6
CONTINUOUS
62
  7
10
752.521
20
588.181
30
0.0
11
752.899
21
588.684
31
0.0
0
LINE
5
38ed
8
0-0
6
CONTINUOUS
62
  7
10
752.899
20
588.684
30
0.0
11
753.285
21
589.164
31
0.0
0
LINE
5
38ee
8
0-0
6
CONTINUOUS
62
  7
10
753.285
20
589.164
30
0.0
11
753.678
21
589.623
31
0.0
0
LINE
5
38ef
8
0-0
6
CONTINUOUS
62
  7
10
753.678
20
589.623
30
0.0
11
754.079
21
590.062
31
0.0
0
LINE
5
38f0
8
0-0
6
CONTINUOUS
62
  7
10
754.079
20
590.062
30
0.0
11
754.487
21
590.483
31
0.0
0
LINE
5
38f1
8
0-0
6
CONTINUOUS
62
  7
10
754.487
20
590.483
30
0.0
11
754.904
21
590.887
31
0.0
0
LINE
5
38f2
8
0-0
6
CONTINUOUS
62
  7
10
754.904
20
590.887
30
0.0
11
755.330
21
591.273
31
0.0
0
LINE
5
38f3
8
0-0
6
CONTINUOUS
62
  7
10
755.330
20
591.273
30
0.0
11
755.764
21
591.644
31
0.0
0
LINE
5
38f4
8
0-0
6
CONTINUOUS
62
  7
10
755.764
20
591.644
30
0.0
11
756.207
21
591.999
31
0.0
0
LINE
5
38f5
8
0-0
6
CONTINUOUS
62
  7
10
756.207
20
591.999
30
0.0
11
756.659
21
592.340
31
0.0
0
LINE
5
38f6
8
0-0
6
CONTINUOUS
62
  7
10
756.659
20
592.340
30
0.0
11
757.120
21
592.666
31
0.0
0
LINE
5
38f7
8
0-0
6
CONTINUOUS
62
  7
10
757.120
20
592.666
30
0.0
11
757.590
21
592.978
31
0.0
0
LINE
5
38f8
8
0-0
6
CONTINUOUS
62
  7
10
757.590
20
592.978
30
0.0
11
758.069
21
593.276
31
0.0
0
LINE
5
38f9
8
0-0
6
CONTINUOUS
62
  7
10
758.069
20
593.276
30
0.0
11
758.557
21
593.560
31
0.0
0
LINE
5
38fa
8
0-0
6
CONTINUOUS
62
  7
10
758.557
20
593.560
30
0.0
11
759.054
21
593.831
31
0.0
0
LINE
5
38fb
8
0-0
6
CONTINUOUS
62
  7
10
759.054
20
593.831
30
0.0
11
759.559
21
594.088
31
0.0
0
LINE
5
38fc
8
0-0
6
CONTINUOUS
62
  7
10
759.559
20
594.088
30
0.0
11
760.074
21
594.331
31
0.0
0
LINE
5
38fd
8
0-0
6
CONTINUOUS
62
  7
10
760.074
20
594.331
30
0.0
11
760.596
21
594.560
31
0.0
0
LINE
5
38fe
8
0-0
6
CONTINUOUS
62
  7
10
760.596
20
594.560
30
0.0
11
761.126
21
594.775
31
0.0
0
LINE
5
38ff
8
0-0
6
CONTINUOUS
62
  7
10
761.126
20
594.775
30
0.0
11
761.664
21
594.974
31
0.0
0
LINE
5
3900
8
0-0
6
CONTINUOUS
62
  7
10
761.664
20
594.974
30
0.0
11
762.210
21
595.159
31
0.0
0
LINE
5
3901
8
0-0
6
CONTINUOUS
62
  7
10
762.210
20
595.159
30
0.0
11
762.762
21
595.327
31
0.0
0
LINE
5
3902
8
0-0
6
CONTINUOUS
62
  7
10
762.762
20
595.327
30
0.0
11
763.321
21
595.479
31
0.0
0
LINE
5
3903
8
0-0
6
CONTINUOUS
62
  7
10
763.321
20
595.479
30
0.0
11
763.886
21
595.615
31
0.0
0
LINE
5
3904
8
0-0
6
CONTINUOUS
62
  7
10
763.886
20
595.615
30
0.0
11
764.457
21
595.732
31
0.0
0
LINE
5
3905
8
0-0
6
CONTINUOUS
62
  7
10
764.457
20
595.732
30
0.0
11
765.034
21
595.832
31
0.0
0
LINE
5
3906
8
0-0
6
CONTINUOUS
62
  7
10
765.034
20
595.832
30
0.0
11
765.616
21
595.913
31
0.0
0
LINE
5
3907
8
0-0
6
CONTINUOUS
62
  7
10
765.616
20
595.913
30
0.0
11
766.204
21
595.974
31
0.0
0
LINE
5
3908
8
0-0
6
CONTINUOUS
62
  7
10
766.204
20
595.974
30
0.0
11
766.797
21
596.016
31
0.0
0
LINE
5
3909
8
0-0
6
CONTINUOUS
62
  7
10
766.797
20
596.016
30
0.0
11
767.395
21
596.036
31
0.0
0
LINE
5
390a
8
0-0
6
CONTINUOUS
62
  7
10
767.395
20
596.036
30
0.0
11
767.997
21
596.036
31
0.0
0
LINE
5
390b
8
0-0
6
CONTINUOUS
62
  7
10
767.997
20
596.036
30
0.0
11
768.605
21
596.013
31
0.0
0
LINE
5
390c
8
0-0
6
CONTINUOUS
62
  7
10
768.605
20
596.013
30
0.0
11
769.218
21
595.969
31
0.0
0
LINE
5
390d
8
0-0
6
CONTINUOUS
62
  7
10
769.218
20
595.969
30
0.0
11
769.835
21
595.901
31
0.0
0
LINE
5
390e
8
0-0
6
CONTINUOUS
62
  7
10
769.835
20
595.901
30
0.0
11
770.458
21
595.810
31
0.0
0
LINE
5
390f
8
0-0
6
CONTINUOUS
62
  7
10
770.458
20
595.810
30
0.0
11
771.084
21
595.696
31
0.0
0
LINE
5
3910
8
0-0
6
CONTINUOUS
62
  7
10
771.084
20
595.696
30
0.0
11
771.715
21
595.558
31
0.0
0
LINE
5
3911
8
0-0
6
CONTINUOUS
62
  7
10
771.715
20
595.558
30
0.0
11
772.350
21
595.396
31
0.0
0
LINE
5
3912
8
0-0
6
CONTINUOUS
62
  7
10
772.350
20
595.396
30
0.0
11
772.989
21
595.210
31
0.0
0
LINE
5
3913
8
0-0
6
CONTINUOUS
62
  7
10
772.989
20
595.210
30
0.0
11
773.631
21
595.000
31
0.0
0
LINE
5
3914
8
0-0
6
CONTINUOUS
62
  7
10
773.631
20
595.000
30
0.0
11
774.275
21
594.767
31
0.0
0
LINE
5
3915
8
0-0
6
CONTINUOUS
62
  7
10
774.275
20
594.767
30
0.0
11
774.921
21
594.510
31
0.0
0
LINE
5
3916
8
0-0
6
CONTINUOUS
62
  7
10
774.921
20
594.510
30
0.0
11
775.567
21
594.230
31
0.0
0
LINE
5
3917
8
0-0
6
CONTINUOUS
62
  7
10
775.567
20
594.230
30
0.0
11
776.213
21
593.927
31
0.0
0
LINE
5
3918
8
0-0
6
CONTINUOUS
62
  7
10
776.213
20
593.927
30
0.0
11
776.856
21
593.603
31
0.0
0
LINE
5
3919
8
0-0
6
CONTINUOUS
62
  7
10
776.856
20
593.603
30
0.0
11
777.496
21
593.258
31
0.0
0
LINE
5
391a
8
0-0
6
CONTINUOUS
62
  7
10
777.496
20
593.258
30
0.0
11
778.130
21
592.893
31
0.0
0
LINE
5
391b
8
0-0
6
CONTINUOUS
62
  7
10
778.130
20
592.893
30
0.0
11
778.757
21
592.509
31
0.0
0
LINE
5
391c
8
0-0
6
CONTINUOUS
62
  7
10
778.757
20
592.509
30
0.0
11
779.374
21
592.108
31
0.0
0
LINE
5
391d
8
0-0
6
CONTINUOUS
62
  7
10
779.374
20
592.108
30
0.0
11
779.980
21
591.692
31
0.0
0
LINE
5
391e
8
0-0
6
CONTINUOUS
62
  7
10
779.980
20
591.692
30
0.0
11
780.573
21
591.261
31
0.0
0
LINE
5
391f
8
0-0
6
CONTINUOUS
62
  7
10
780.573
20
591.261
30
0.0
11
781.149
21
590.817
31
0.0
0
LINE
5
3920
8
0-0
6
CONTINUOUS
62
  7
10
781.149
20
590.817
30
0.0
11
781.707
21
590.362
31
0.0
0
LINE
5
3921
8
0-0
6
CONTINUOUS
62
  7
10
781.707
20
590.362
30
0.0
11
782.245
21
589.897
31
0.0
0
LINE
5
3922
8
0-0
6
CONTINUOUS
62
  7
10
782.245
20
589.897
30
0.0
11
782.761
21
589.425
31
0.0
0
LINE
5
3923
8
0-0
6
CONTINUOUS
62
  7
10
782.761
20
589.425
30
0.0
11
783.253
21
588.945
31
0.0
0
LINE
5
3924
8
0-0
6
CONTINUOUS
62
  7
10
783.253
20
588.945
30
0.0
11
783.720
21
588.460
31
0.0
0
LINE
5
3925
8
0-0
6
CONTINUOUS
62
  7
10
783.720
20
588.460
30
0.0
11
784.161
21
587.970
31
0.0
0
LINE
5
3926
8
0-0
6
CONTINUOUS
62
  7
10
784.161
20
587.970
30
0.0
11
784.574
21
587.474
31
0.0
0
LINE
5
3927
8
0-0
6
CONTINUOUS
62
  7
10
784.574
20
587.474
30
0.0
11
784.960
21
586.973
31
0.0
0
LINE
5
3928
8
0-0
6
CONTINUOUS
62
  7
10
784.960
20
586.973
30
0.0
11
785.321
21
586.465
31
0.0
0
LINE
5
3929
8
0-0
6
CONTINUOUS
62
  7
10
785.321
20
586.465
30
0.0
11
785.655
21
585.947
31
0.0
0
LINE
5
392a
8
0-0
6
CONTINUOUS
62
  7
10
785.655
20
585.947
30
0.0
11
785.967
21
585.416
31
0.0
0
LINE
5
392b
8
0-0
6
CONTINUOUS
62
  7
10
785.967
20
585.416
30
0.0
11
786.257
21
584.867
31
0.0
0
LINE
5
392c
8
0-0
6
CONTINUOUS
62
  7
10
786.257
20
584.867
30
0.0
11
786.529
21
584.295
31
0.0
0
LINE
5
392d
8
0-0
6
CONTINUOUS
62
  7
10
786.529
20
584.295
30
0.0
11
786.787
21
583.692
31
0.0
0
LINE
5
392e
8
0-0
6
CONTINUOUS
62
  7
10
786.787
20
583.692
30
0.0
11
787.035
21
583.048
31
0.0
0
LINE
5
392f
8
0-0
6
CONTINUOUS
62
  7
10
787.035
20
583.048
30
0.0
11
787.277
21
582.356
31
0.0
0
LINE
5
3930
8
0-0
6
CONTINUOUS
62
  7
10
787.277
20
582.356
30
0.0
11
787.517
21
581.604
31
0.0
0
LINE
5
3931
8
0-0
6
CONTINUOUS
62
  7
10
787.517
20
581.604
30
0.0
11
787.757
21
580.783
31
0.0
0
LINE
5
3932
8
0-0
6
CONTINUOUS
62
  7
10
787.757
20
667.596
30
0.0
11
788.312
21
667.540
31
0.0
0
LINE
5
3933
8
0-0
6
CONTINUOUS
62
  7
10
788.312
20
667.540
30
0.0
11
788.856
21
667.483
31
0.0
0
LINE
5
3934
8
0-0
6
CONTINUOUS
62
  7
10
788.856
20
667.483
30
0.0
11
789.389
21
667.424
31
0.0
0
LINE
5
3935
8
0-0
6
CONTINUOUS
62
  7
10
789.389
20
667.424
30
0.0
11
789.910
21
667.362
31
0.0
0
LINE
5
3936
8
0-0
6
CONTINUOUS
62
  7
10
789.910
20
667.362
30
0.0
11
790.417
21
667.297
31
0.0
0
LINE
5
3937
8
0-0
6
CONTINUOUS
62
  7
10
790.417
20
667.297
30
0.0
11
790.911
21
667.225
31
0.0
0
LINE
5
3938
8
0-0
6
CONTINUOUS
62
  7
10
790.911
20
667.225
30
0.0
11
791.392
21
667.148
31
0.0
0
LINE
5
3939
8
0-0
6
CONTINUOUS
62
  7
10
791.392
20
667.148
30
0.0
11
791.861
21
667.063
31
0.0
0
LINE
5
393a
8
0-0
6
CONTINUOUS
62
  7
10
791.861
20
667.063
30
0.0
11
792.320
21
666.970
31
0.0
0
LINE
5
393b
8
0-0
6
CONTINUOUS
62
  7
10
792.320
20
666.970
30
0.0
11
792.769
21
666.868
31
0.0
0
LINE
5
393c
8
0-0
6
CONTINUOUS
62
  7
10
792.769
20
666.868
30
0.0
11
793.209
21
666.755
31
0.0
0
LINE
5
393d
8
0-0
6
CONTINUOUS
62
  7
10
793.209
20
666.755
30
0.0
11
793.643
21
666.631
31
0.0
0
LINE
5
393e
8
0-0
6
CONTINUOUS
62
  7
10
793.643
20
666.631
30
0.0
11
794.072
21
666.495
31
0.0
0
LINE
5
393f
8
0-0
6
CONTINUOUS
62
  7
10
794.072
20
666.495
30
0.0
11
794.498
21
666.346
31
0.0
0
LINE
5
3940
8
0-0
6
CONTINUOUS
62
  7
10
794.498
20
666.346
30
0.0
11
794.922
21
666.184
31
0.0
0
LINE
5
3941
8
0-0
6
CONTINUOUS
62
  7
10
794.922
20
666.184
30
0.0
11
795.345
21
666.008
31
0.0
0
LINE
5
3942
8
0-0
6
CONTINUOUS
62
  7
10
795.345
20
666.008
30
0.0
11
795.770
21
665.818
31
0.0
0
LINE
5
3943
8
0-0
6
CONTINUOUS
62
  7
10
795.770
20
665.818
30
0.0
11
796.196
21
665.613
31
0.0
0
LINE
5
3944
8
0-0
6
CONTINUOUS
62
  7
10
796.196
20
665.613
30
0.0
11
796.625
21
665.394
31
0.0
0
LINE
5
3945
8
0-0
6
CONTINUOUS
62
  7
10
796.625
20
665.394
30
0.0
11
797.057
21
665.160
31
0.0
0
LINE
5
3946
8
0-0
6
CONTINUOUS
62
  7
10
797.057
20
665.160
30
0.0
11
797.492
21
664.912
31
0.0
0
LINE
5
3947
8
0-0
6
CONTINUOUS
62
  7
10
797.492
20
664.912
30
0.0
11
797.930
21
664.651
31
0.0
0
LINE
5
3948
8
0-0
6
CONTINUOUS
62
  7
10
797.930
20
664.651
30
0.0
11
798.370
21
664.376
31
0.0
0
LINE
5
3949
8
0-0
6
CONTINUOUS
62
  7
10
798.370
20
664.376
30
0.0
11
798.813
21
664.089
31
0.0
0
LINE
5
394a
8
0-0
6
CONTINUOUS
62
  7
10
798.813
20
664.089
30
0.0
11
799.256
21
663.791
31
0.0
0
LINE
5
394b
8
0-0
6
CONTINUOUS
62
  7
10
799.256
20
663.791
30
0.0
11
799.699
21
663.482
31
0.0
0
LINE
5
394c
8
0-0
6
CONTINUOUS
62
  7
10
799.699
20
663.482
30
0.0
11
800.139
21
663.164
31
0.0
0
LINE
5
394d
8
0-0
6
CONTINUOUS
62
  7
10
800.139
20
663.164
30
0.0
11
800.576
21
662.838
31
0.0
0
LINE
5
394e
8
0-0
6
CONTINUOUS
62
  7
10
800.576
20
662.838
30
0.0
11
801.006
21
662.505
31
0.0
0
LINE
5
394f
8
0-0
6
CONTINUOUS
62
  7
10
801.006
20
662.505
30
0.0
11
801.429
21
662.167
31
0.0
0
LINE
5
3950
8
0-0
6
CONTINUOUS
62
  7
10
801.429
20
662.167
30
0.0
11
801.843
21
661.824
31
0.0
0
LINE
5
3951
8
0-0
6
CONTINUOUS
62
  7
10
801.843
20
661.824
30
0.0
11
802.245
21
661.477
31
0.0
0
LINE
5
3952
8
0-0
6
CONTINUOUS
62
  7
10
802.245
20
661.477
30
0.0
11
802.634
21
661.128
31
0.0
0
LINE
5
3953
8
0-0
6
CONTINUOUS
62
  7
10
802.634
20
661.128
30
0.0
11
803.008
21
660.777
31
0.0
0
LINE
5
3954
8
0-0
6
CONTINUOUS
62
  7
10
803.008
20
660.777
30
0.0
11
803.366
21
660.425
31
0.0
0
LINE
5
3955
8
0-0
6
CONTINUOUS
62
  7
10
803.366
20
660.425
30
0.0
11
803.707
21
660.071
31
0.0
0
LINE
5
3956
8
0-0
6
CONTINUOUS
62
  7
10
803.707
20
660.071
30
0.0
11
804.030
21
659.715
31
0.0
0
LINE
5
3957
8
0-0
6
CONTINUOUS
62
  7
10
804.030
20
659.715
30
0.0
11
804.334
21
659.357
31
0.0
0
LINE
5
3958
8
0-0
6
CONTINUOUS
62
  7
10
804.334
20
659.357
30
0.0
11
804.621
21
658.997
31
0.0
0
LINE
5
3959
8
0-0
6
CONTINUOUS
62
  7
10
804.621
20
658.997
30
0.0
11
804.889
21
658.631
31
0.0
0
LINE
5
395a
8
0-0
6
CONTINUOUS
62
  7
10
804.889
20
658.631
30
0.0
11
805.140
21
658.259
31
0.0
0
LINE
5
395b
8
0-0
6
CONTINUOUS
62
  7
10
805.140
20
658.259
30
0.0
11
805.375
21
657.878
31
0.0
0
LINE
5
395c
8
0-0
6
CONTINUOUS
62
  7
10
805.375
20
657.878
30
0.0
11
805.596
21
657.485
31
0.0
0
LINE
5
395d
8
0-0
6
CONTINUOUS
62
  7
10
805.596
20
657.485
30
0.0
11
805.804
21
657.077
31
0.0
0
LINE
5
395e
8
0-0
6
CONTINUOUS
62
  7
10
805.804
20
657.077
30
0.0
11
806.002
21
656.648
31
0.0
0
LINE
5
395f
8
0-0
6
CONTINUOUS
62
  7
10
806.002
20
656.648
30
0.0
11
806.192
21
656.193
31
0.0
0
LINE
5
3960
8
0-0
6
CONTINUOUS
62
  7
10
806.192
20
656.193
30
0.0
11
806.379
21
655.705
31
0.0
0
LINE
5
3961
8
0-0
6
CONTINUOUS
62
  7
10
806.379
20
655.705
30
0.0
11
806.566
21
655.176
31
0.0
0
LINE
5
3962
8
0-0
6
CONTINUOUS
62
  7
10
806.566
20
655.176
30
0.0
11
806.757
21
654.596
31
0.0
0
LINE
5
3963
8
0-0
6
CONTINUOUS
62
  7
10
746.757
20
657.597
30
0.0
11
746.982
21
659.174
31
0.0
0
LINE
5
3964
8
0-0
6
CONTINUOUS
62
  7
10
746.982
20
659.174
30
0.0
11
747.218
21
660.631
31
0.0
0
LINE
5
3965
8
0-0
6
CONTINUOUS
62
  7
10
747.218
20
660.631
30
0.0
11
747.464
21
661.979
31
0.0
0
LINE
5
3966
8
0-0
6
CONTINUOUS
62
  7
10
747.464
20
661.979
30
0.0
11
747.720
21
663.229
31
0.0
0
LINE
5
3967
8
0-0
6
CONTINUOUS
62
  7
10
747.720
20
663.229
30
0.0
11
747.984
21
664.392
31
0.0
0
LINE
5
3968
8
0-0
6
CONTINUOUS
62
  7
10
747.984
20
664.392
30
0.0
11
748.258
21
665.477
31
0.0
0
LINE
5
3969
8
0-0
6
CONTINUOUS
62
  7
10
748.258
20
665.477
30
0.0
11
748.540
21
666.490
31
0.0
0
LINE
5
396a
8
0-0
6
CONTINUOUS
62
  7
10
748.540
20
666.490
30
0.0
11
748.831
21
667.440
31
0.0
0
LINE
5
396b
8
0-0
6
CONTINUOUS
62
  7
10
748.831
20
667.440
30
0.0
11
749.129
21
668.333
31
0.0
0
LINE
5
396c
8
0-0
6
CONTINUOUS
62
  7
10
749.129
20
668.333
30
0.0
11
749.436
21
669.173
31
0.0
0
LINE
5
396d
8
0-0
6
CONTINUOUS
62
  7
10
749.436
20
669.173
30
0.0
11
749.750
21
669.965
31
0.0
0
LINE
5
396e
8
0-0
6
CONTINUOUS
62
  7
10
749.750
20
669.965
30
0.0
11
750.072
21
670.714
31
0.0
0
LINE
5
396f
8
0-0
6
CONTINUOUS
62
  7
10
750.072
20
670.714
30
0.0
11
750.400
21
671.423
31
0.0
0
LINE
5
3970
8
0-0
6
CONTINUOUS
62
  7
10
750.400
20
671.423
30
0.0
11
750.737
21
672.095
31
0.0
0
LINE
5
3971
8
0-0
6
CONTINUOUS
62
  7
10
750.737
20
672.095
30
0.0
11
751.079
21
672.734
31
0.0
0
LINE
5
3972
8
0-0
6
CONTINUOUS
62
  7
10
751.079
20
672.734
30
0.0
11
751.429
21
673.341
31
0.0
0
LINE
5
3973
8
0-0
6
CONTINUOUS
62
  7
10
751.429
20
673.341
30
0.0
11
751.786
21
673.919
31
0.0
0
LINE
5
3974
8
0-0
6
CONTINUOUS
62
  7
10
751.786
20
673.919
30
0.0
11
752.150
21
674.470
31
0.0
0
LINE
5
3975
8
0-0
6
CONTINUOUS
62
  7
10
752.150
20
674.470
30
0.0
11
752.521
21
674.995
31
0.0
0
LINE
5
3976
8
0-0
6
CONTINUOUS
62
  7
10
752.521
20
674.995
30
0.0
11
752.899
21
675.497
31
0.0
0
LINE
5
3977
8
0-0
6
CONTINUOUS
62
  7
10
752.899
20
675.497
30
0.0
11
753.285
21
675.977
31
0.0
0
LINE
5
3978
8
0-0
6
CONTINUOUS
62
  7
10
753.285
20
675.977
30
0.0
11
753.678
21
676.437
31
0.0
0
LINE
5
3979
8
0-0
6
CONTINUOUS
62
  7
10
753.678
20
676.437
30
0.0
11
754.079
21
676.876
31
0.0
0
LINE
5
397a
8
0-0
6
CONTINUOUS
62
  7
10
754.079
20
676.876
30
0.0
11
754.487
21
677.297
31
0.0
0
LINE
5
397b
8
0-0
6
CONTINUOUS
62
  7
10
754.487
20
677.297
30
0.0
11
754.904
21
677.701
31
0.0
0
LINE
5
397c
8
0-0
6
CONTINUOUS
62
  7
10
754.904
20
677.701
30
0.0
11
755.330
21
678.087
31
0.0
0
LINE
5
397d
8
0-0
6
CONTINUOUS
62
  7
10
755.330
20
678.087
30
0.0
11
755.764
21
678.458
31
0.0
0
LINE
5
397e
8
0-0
6
CONTINUOUS
62
  7
10
755.764
20
678.458
30
0.0
11
756.207
21
678.813
31
0.0
0
LINE
5
397f
8
0-0
6
CONTINUOUS
62
  7
10
756.207
20
678.813
30
0.0
11
756.659
21
679.154
31
0.0
0
LINE
5
3980
8
0-0
6
CONTINUOUS
62
  7
10
756.659
20
679.154
30
0.0
11
757.120
21
679.480
31
0.0
0
LINE
5
3981
8
0-0
6
CONTINUOUS
62
  7
10
757.120
20
679.480
30
0.0
11
757.590
21
679.792
31
0.0
0
LINE
5
3982
8
0-0
6
CONTINUOUS
62
  7
10
757.590
20
679.792
30
0.0
11
758.069
21
680.090
31
0.0
0
LINE
5
3983
8
0-0
6
CONTINUOUS
62
  7
10
758.069
20
680.090
30
0.0
11
758.557
21
680.374
31
0.0
0
LINE
5
3984
8
0-0
6
CONTINUOUS
62
  7
10
758.557
20
680.374
30
0.0
11
759.054
21
680.645
31
0.0
0
LINE
5
3985
8
0-0
6
CONTINUOUS
62
  7
10
759.054
20
680.645
30
0.0
11
759.559
21
680.902
31
0.0
0
LINE
5
3986
8
0-0
6
CONTINUOUS
62
  7
10
759.559
20
680.902
30
0.0
11
760.074
21
681.145
31
0.0
0
LINE
5
3987
8
0-0
6
CONTINUOUS
62
  7
10
760.074
20
681.145
30
0.0
11
760.596
21
681.374
31
0.0
0
LINE
5
3988
8
0-0
6
CONTINUOUS
62
  7
10
760.596
20
681.374
30
0.0
11
761.126
21
681.589
31
0.0
0
LINE
5
3989
8
0-0
6
CONTINUOUS
62
  7
10
761.126
20
681.589
30
0.0
11
761.664
21
681.788
31
0.0
0
LINE
5
398a
8
0-0
6
CONTINUOUS
62
  7
10
761.664
20
681.788
30
0.0
11
762.210
21
681.973
31
0.0
0
LINE
5
398b
8
0-0
6
CONTINUOUS
62
  7
10
762.210
20
681.973
30
0.0
11
762.762
21
682.141
31
0.0
0
LINE
5
398c
8
0-0
6
CONTINUOUS
62
  7
10
762.762
20
682.141
30
0.0
11
763.321
21
682.293
31
0.0
0
LINE
5
398d
8
0-0
6
CONTINUOUS
62
  7
10
763.321
20
682.293
30
0.0
11
763.886
21
682.429
31
0.0
0
LINE
5
398e
8
0-0
6
CONTINUOUS
62
  7
10
763.886
20
682.429
30
0.0
11
764.457
21
682.546
31
0.0
0
LINE
5
398f
8
0-0
6
CONTINUOUS
62
  7
10
764.457
20
682.546
30
0.0
11
765.034
21
682.646
31
0.0
0
LINE
5
3990
8
0-0
6
CONTINUOUS
62
  7
10
765.034
20
682.646
30
0.0
11
765.616
21
682.727
31
0.0
0
LINE
5
3991
8
0-0
6
CONTINUOUS
62
  7
10
765.616
20
682.727
30
0.0
11
766.204
21
682.788
31
0.0
0
LINE
5
3992
8
0-0
6
CONTINUOUS
62
  7
10
766.204
20
682.788
30
0.0
11
766.797
21
682.830
31
0.0
0
LINE
5
3993
8
0-0
6
CONTINUOUS
62
  7
10
766.797
20
682.830
30
0.0
11
767.395
21
682.850
31
0.0
0
LINE
5
3994
8
0-0
6
CONTINUOUS
62
  7
10
767.395
20
682.850
30
0.0
11
767.997
21
682.850
31
0.0
0
LINE
5
3995
8
0-0
6
CONTINUOUS
62
  7
10
767.997
20
682.850
30
0.0
11
768.605
21
682.827
31
0.0
0
LINE
5
3996
8
0-0
6
CONTINUOUS
62
  7
10
768.605
20
682.827
30
0.0
11
769.218
21
682.783
31
0.0
0
LINE
5
3997
8
0-0
6
CONTINUOUS
62
  7
10
769.218
20
682.783
30
0.0
11
769.835
21
682.715
31
0.0
0
LINE
5
3998
8
0-0
6
CONTINUOUS
62
  7
10
769.835
20
682.715
30
0.0
11
770.458
21
682.624
31
0.0
0
LINE
5
3999
8
0-0
6
CONTINUOUS
62
  7
10
770.458
20
682.624
30
0.0
11
771.084
21
682.510
31
0.0
0
LINE
5
399a
8
0-0
6
CONTINUOUS
62
  7
10
771.084
20
682.510
30
0.0
11
771.715
21
682.372
31
0.0
0
LINE
5
399b
8
0-0
6
CONTINUOUS
62
  7
10
771.715
20
682.372
30
0.0
11
772.350
21
682.210
31
0.0
0
LINE
5
399c
8
0-0
6
CONTINUOUS
62
  7
10
772.350
20
682.210
30
0.0
11
772.989
21
682.024
31
0.0
0
LINE
5
399d
8
0-0
6
CONTINUOUS
62
  7
10
772.989
20
682.024
30
0.0
11
773.631
21
681.814
31
0.0
0
LINE
5
399e
8
0-0
6
CONTINUOUS
62
  7
10
773.631
20
681.814
30
0.0
11
774.275
21
681.581
31
0.0
0
LINE
5
399f
8
0-0
6
CONTINUOUS
62
  7
10
774.275
20
681.581
30
0.0
11
774.921
21
681.324
31
0.0
0
LINE
5
39a0
8
0-0
6
CONTINUOUS
62
  7
10
774.921
20
681.324
30
0.0
11
775.567
21
681.044
31
0.0
0
LINE
5
39a1
8
0-0
6
CONTINUOUS
62
  7
10
775.567
20
681.044
30
0.0
11
776.213
21
680.741
31
0.0
0
LINE
5
39a2
8
0-0
6
CONTINUOUS
62
  7
10
776.213
20
680.741
30
0.0
11
776.856
21
680.417
31
0.0
0
LINE
5
39a3
8
0-0
6
CONTINUOUS
62
  7
10
776.856
20
680.417
30
0.0
11
777.496
21
680.072
31
0.0
0
LINE
5
39a4
8
0-0
6
CONTINUOUS
62
  7
10
777.496
20
680.072
30
0.0
11
778.130
21
679.707
31
0.0
0
LINE
5
39a5
8
0-0
6
CONTINUOUS
62
  7
10
778.130
20
679.707
30
0.0
11
778.757
21
679.323
31
0.0
0
LINE
5
39a6
8
0-0
6
CONTINUOUS
62
  7
10
778.757
20
679.323
30
0.0
11
779.374
21
678.922
31
0.0
0
LINE
5
39a7
8
0-0
6
CONTINUOUS
62
  7
10
779.374
20
678.922
30
0.0
11
779.980
21
678.506
31
0.0
0
LINE
5
39a8
8
0-0
6
CONTINUOUS
62
  7
10
779.980
20
678.506
30
0.0
11
780.573
21
678.074
31
0.0
0
LINE
5
39a9
8
0-0
6
CONTINUOUS
62
  7
10
780.573
20
678.074
30
0.0
11
781.149
21
677.631
31
0.0
0
LINE
5
39aa
8
0-0
6
CONTINUOUS
62
  7
10
781.149
20
677.631
30
0.0
11
781.707
21
677.176
31
0.0
0
LINE
5
39ab
8
0-0
6
CONTINUOUS
62
  7
10
781.707
20
677.176
30
0.0
11
782.245
21
676.711
31
0.0
0
LINE
5
39ac
8
0-0
6
CONTINUOUS
62
  7
10
782.245
20
676.711
30
0.0
11
782.761
21
676.239
31
0.0
0
LINE
5
39ad
8
0-0
6
CONTINUOUS
62
  7
10
782.761
20
676.239
30
0.0
11
783.253
21
675.759
31
0.0
0
LINE
5
39ae
8
0-0
6
CONTINUOUS
62
  7
10
783.253
20
675.759
30
0.0
11
783.720
21
675.274
31
0.0
0
LINE
5
39af
8
0-0
6
CONTINUOUS
62
  7
10
783.720
20
675.274
30
0.0
11
784.161
21
674.784
31
0.0
0
LINE
5
39b0
8
0-0
6
CONTINUOUS
62
  7
10
784.161
20
674.784
30
0.0
11
784.574
21
674.288
31
0.0
0
LINE
5
39b1
8
0-0
6
CONTINUOUS
62
  7
10
784.574
20
674.288
30
0.0
11
784.960
21
673.787
31
0.0
0
LINE
5
39b2
8
0-0
6
CONTINUOUS
62
  7
10
784.960
20
673.787
30
0.0
11
785.321
21
673.279
31
0.0
0
LINE
5
39b3
8
0-0
6
CONTINUOUS
62
  7
10
785.321
20
673.279
30
0.0
11
785.655
21
672.761
31
0.0
0
LINE
5
39b4
8
0-0
6
CONTINUOUS
62
  7
10
785.655
20
672.761
30
0.0
11
785.967
21
672.230
31
0.0
0
LINE
5
39b5
8
0-0
6
CONTINUOUS
62
  7
10
785.967
20
672.230
30
0.0
11
786.257
21
671.681
31
0.0
0
LINE
5
39b6
8
0-0
6
CONTINUOUS
62
  7
10
786.257
20
671.681
30
0.0
11
786.529
21
671.109
31
0.0
0
LINE
5
39b7
8
0-0
6
CONTINUOUS
62
  7
10
786.529
20
671.109
30
0.0
11
786.787
21
670.506
31
0.0
0
LINE
5
39b8
8
0-0
6
CONTINUOUS
62
  7
10
786.787
20
670.506
30
0.0
11
787.035
21
669.862
31
0.0
0
LINE
5
39b9
8
0-0
6
CONTINUOUS
62
  7
10
787.035
20
669.862
30
0.0
11
787.277
21
669.170
31
0.0
0
LINE
5
39ba
8
0-0
6
CONTINUOUS
62
  7
10
787.277
20
669.170
30
0.0
11
787.517
21
668.418
31
0.0
0
LINE
5
39bb
8
0-0
6
CONTINUOUS
62
  7
10
787.517
20
668.418
30
0.0
11
787.757
21
667.596
31
0.0
0
LINE
5
39bc
8
0-0
6
CONTINUOUS
62
  7
10
806.757
20
653.783
30
0.0
11
1066.757
21
653.783
31
0.0
0
LINE
5
39bd
8
0-0
6
CONTINUOUS
62
  7
10
787.757
20
667.596
30
0.0
11
787.757
21
547.783
31
0.0
0
LINE
5
39be
8
0-0
6
CONTINUOUS
62
  7
10
1439.189
20
853.108
30
0.0
11
1414.189
21
855.736
31
0.0
0
LINE
5
39bf
8
0-0
6
CONTINUOUS
62
  7
10
1439.189
20
1058.108
30
0.0
11
1414.189
21
1055.481
31
0.0
0
LINE
5
39c0
8
0-0
6
CONTINUOUS
62
  7
10
1434.189
20
860.672
30
0.0
11
1439.189
21
856.125
31
0.0
0
LINE
5
39c1
8
0-0
6
CONTINUOUS
62
  7
10
1439.189
20
1058.108
30
0.0
11
1414.189
21
1055.481
31
0.0
0
LINE
5
39c2
8
0-0
6
CONTINUOUS
62
  7
10
1434.189
20
1050.544
30
0.0
11
1439.189
21
1055.092
31
0.0
0
LINE
5
39c3
8
0-0
6
CONTINUOUS
62
  7
10
1439.189
20
1058.108
30
0.0
11
1439.189
21
1055.092
31
0.0
0
LINE
5
39c4
8
0-0
6
CONTINUOUS
62
  7
10
1439.189
20
856.125
30
0.0
11
1439.189
21
853.108
31
0.0
0
LINE
5
39c5
8
0-0
6
CONTINUOUS
62
  7
10
1414.189
20
1055.481
30
0.0
11
1341.825
21
977.768
31
0.0
0
LINE
5
39c6
8
0-0
6
CONTINUOUS
62
  7
10
1337.951
20
973.608
30
0.0
11
1337.732
21
973.255
31
0.0
0
LINE
5
39c7
8
0-0
6
CONTINUOUS
62
  7
10
1337.732
20
973.255
30
0.0
11
1337.524
21
972.916
31
0.0
0
LINE
5
39c8
8
0-0
6
CONTINUOUS
62
  7
10
1337.524
20
972.916
30
0.0
11
1337.326
21
972.586
31
0.0
0
LINE
5
39c9
8
0-0
6
CONTINUOUS
62
  7
10
1337.326
20
972.586
30
0.0
11
1337.136
21
972.258
31
0.0
0
LINE
5
39ca
8
0-0
6
CONTINUOUS
62
  7
10
1337.136
20
972.258
30
0.0
11
1336.953
21
971.928
31
0.0
0
LINE
5
39cb
8
0-0
6
CONTINUOUS
62
  7
10
1336.953
20
971.928
30
0.0
11
1336.775
21
971.595
31
0.0
0
LINE
5
39cc
8
0-0
6
CONTINUOUS
62
  7
10
1336.775
20
971.595
30
0.0
11
1336.603
21
971.257
31
0.0
0
LINE
5
39cd
8
0-0
6
CONTINUOUS
62
  7
10
1336.603
20
971.257
30
0.0
11
1336.437
21
970.913
31
0.0
0
LINE
5
39ce
8
0-0
6
CONTINUOUS
62
  7
10
1336.437
20
970.913
30
0.0
11
1336.274
21
970.563
31
0.0
0
LINE
5
39cf
8
0-0
6
CONTINUOUS
62
  7
10
1336.274
20
970.563
30
0.0
11
1336.118
21
970.205
31
0.0
0
LINE
5
39d0
8
0-0
6
CONTINUOUS
62
  7
10
1336.118
20
970.205
30
0.0
11
1335.965
21
969.841
31
0.0
0
LINE
5
39d1
8
0-0
6
CONTINUOUS
62
  7
10
1335.965
20
969.841
30
0.0
11
1335.818
21
969.470
31
0.0
0
LINE
5
39d2
8
0-0
6
CONTINUOUS
62
  7
10
1335.818
20
969.470
30
0.0
11
1335.675
21
969.093
31
0.0
0
LINE
5
39d3
8
0-0
6
CONTINUOUS
62
  7
10
1335.675
20
969.093
30
0.0
11
1335.538
21
968.710
31
0.0
0
LINE
5
39d4
8
0-0
6
CONTINUOUS
62
  7
10
1335.538
20
968.710
30
0.0
11
1335.405
21
968.321
31
0.0
0
LINE
5
39d5
8
0-0
6
CONTINUOUS
62
  7
10
1335.405
20
968.321
30
0.0
11
1335.277
21
967.926
31
0.0
0
LINE
5
39d6
8
0-0
6
CONTINUOUS
62
  7
10
1335.277
20
967.926
30
0.0
11
1335.155
21
967.527
31
0.0
0
LINE
5
39d7
8
0-0
6
CONTINUOUS
62
  7
10
1335.155
20
967.527
30
0.0
11
1335.037
21
967.125
31
0.0
0
LINE
5
39d8
8
0-0
6
CONTINUOUS
62
  7
10
1335.037
20
967.125
30
0.0
11
1334.924
21
966.718
31
0.0
0
LINE
5
39d9
8
0-0
6
CONTINUOUS
62
  7
10
1334.924
20
966.718
30
0.0
11
1334.816
21
966.309
31
0.0
0
LINE
5
39da
8
0-0
6
CONTINUOUS
62
  7
10
1334.816
20
966.309
30
0.0
11
1334.713
21
965.899
31
0.0
0
LINE
5
39db
8
0-0
6
CONTINUOUS
62
  7
10
1334.713
20
965.899
30
0.0
11
1334.614
21
965.487
31
0.0
0
LINE
5
39dc
8
0-0
6
CONTINUOUS
62
  7
10
1334.614
20
965.487
30
0.0
11
1334.521
21
965.077
31
0.0
0
LINE
5
39dd
8
0-0
6
CONTINUOUS
62
  7
10
1334.521
20
965.077
30
0.0
11
1334.432
21
964.667
31
0.0
0
LINE
5
39de
8
0-0
6
CONTINUOUS
62
  7
10
1334.432
20
964.667
30
0.0
11
1334.347
21
964.260
31
0.0
0
LINE
5
39df
8
0-0
6
CONTINUOUS
62
  7
10
1334.347
20
964.260
30
0.0
11
1334.267
21
963.857
31
0.0
0
LINE
5
39e0
8
0-0
6
CONTINUOUS
62
  7
10
1334.267
20
963.857
30
0.0
11
1334.191
21
963.460
31
0.0
0
LINE
5
39e1
8
0-0
6
CONTINUOUS
62
  7
10
1334.191
20
963.460
30
0.0
11
1334.120
21
963.068
31
0.0
0
LINE
5
39e2
8
0-0
6
CONTINUOUS
62
  7
10
1334.120
20
963.068
30
0.0
11
1334.052
21
962.684
31
0.0
0
LINE
5
39e3
8
0-0
6
CONTINUOUS
62
  7
10
1334.052
20
962.684
30
0.0
11
1333.989
21
962.308
31
0.0
0
LINE
5
39e4
8
0-0
6
CONTINUOUS
62
  7
10
1333.989
20
962.308
30
0.0
11
1333.930
21
961.942
31
0.0
0
LINE
5
39e5
8
0-0
6
CONTINUOUS
62
  7
10
1333.930
20
961.942
30
0.0
11
1333.874
21
961.586
31
0.0
0
LINE
5
39e6
8
0-0
6
CONTINUOUS
62
  7
10
1333.874
20
961.586
30
0.0
11
1333.823
21
961.241
31
0.0
0
LINE
5
39e7
8
0-0
6
CONTINUOUS
62
  7
10
1333.823
20
961.241
30
0.0
11
1333.774
21
960.908
31
0.0
0
LINE
5
39e8
8
0-0
6
CONTINUOUS
62
  7
10
1333.774
20
960.908
30
0.0
11
1333.729
21
960.586
31
0.0
0
LINE
5
39e9
8
0-0
6
CONTINUOUS
62
  7
10
1333.729
20
960.586
30
0.0
11
1333.688
21
960.277
31
0.0
0
LINE
5
39ea
8
0-0
6
CONTINUOUS
62
  7
10
1333.688
20
960.277
30
0.0
11
1333.649
21
959.979
31
0.0
0
LINE
5
39eb
8
0-0
6
CONTINUOUS
62
  7
10
1333.649
20
959.979
30
0.0
11
1333.613
21
959.693
31
0.0
0
LINE
5
39ec
8
0-0
6
CONTINUOUS
62
  7
10
1333.613
20
959.693
30
0.0
11
1333.580
21
959.417
31
0.0
0
LINE
5
39ed
8
0-0
6
CONTINUOUS
62
  7
10
1333.580
20
959.417
30
0.0
11
1333.549
21
959.150
31
0.0
0
LINE
5
39ee
8
0-0
6
CONTINUOUS
62
  7
10
1333.549
20
959.150
30
0.0
11
1333.521
21
958.893
31
0.0
0
LINE
5
39ef
8
0-0
6
CONTINUOUS
62
  7
10
1333.521
20
958.893
30
0.0
11
1333.494
21
958.642
31
0.0
0
LINE
5
39f0
8
0-0
6
CONTINUOUS
62
  7
10
1333.494
20
958.642
30
0.0
11
1333.469
21
958.397
31
0.0
0
LINE
5
39f1
8
0-0
6
CONTINUOUS
62
  7
10
1333.469
20
958.397
30
0.0
11
1333.445
21
958.156
31
0.0
0
LINE
5
39f2
8
0-0
6
CONTINUOUS
62
  7
10
1333.445
20
958.156
30
0.0
11
1333.422
21
957.917
31
0.0
0
LINE
5
39f3
8
0-0
6
CONTINUOUS
62
  7
10
1333.422
20
957.917
30
0.0
11
1333.399
21
957.677
31
0.0
0
LINE
5
39f4
8
0-0
6
CONTINUOUS
62
  7
10
1333.399
20
957.677
30
0.0
11
1333.378
21
957.437
31
0.0
0
LINE
5
39f5
8
0-0
6
CONTINUOUS
62
  7
10
1333.378
20
957.437
30
0.0
11
1333.355
21
957.193
31
0.0
0
LINE
5
39f6
8
0-0
6
CONTINUOUS
62
  7
10
1333.355
20
957.193
30
0.0
11
1333.332
21
956.944
31
0.0
0
LINE
5
39f7
8
0-0
6
CONTINUOUS
62
  7
10
1333.332
20
956.944
30
0.0
11
1333.308
21
956.690
31
0.0
0
LINE
5
39f8
8
0-0
6
CONTINUOUS
62
  7
10
1333.308
20
956.690
30
0.0
11
1333.282
21
956.429
31
0.0
0
LINE
5
39f9
8
0-0
6
CONTINUOUS
62
  7
10
1333.282
20
956.429
30
0.0
11
1333.254
21
956.161
31
0.0
0
LINE
5
39fa
8
0-0
6
CONTINUOUS
62
  7
10
1333.254
20
956.161
30
0.0
11
1333.223
21
955.887
31
0.0
0
LINE
5
39fb
8
0-0
6
CONTINUOUS
62
  7
10
1333.223
20
955.887
30
0.0
11
1333.189
21
955.608
31
0.0
0
LINE
5
39fc
8
0-0
6
CONTINUOUS
62
  7
10
1337.951
20
937.608
30
0.0
11
1337.732
21
937.962
31
0.0
0
LINE
5
39fd
8
0-0
6
CONTINUOUS
62
  7
10
1337.732
20
937.962
30
0.0
11
1337.524
21
938.300
31
0.0
0
LINE
5
39fe
8
0-0
6
CONTINUOUS
62
  7
10
1337.524
20
938.300
30
0.0
11
1337.326
21
938.631
31
0.0
0
LINE
5
39ff
8
0-0
6
CONTINUOUS
62
  7
10
1337.326
20
938.631
30
0.0
11
1337.136
21
938.959
31
0.0
0
LINE
5
3a00
8
0-0
6
CONTINUOUS
62
  7
10
1337.136
20
938.959
30
0.0
11
1336.953
21
939.288
31
0.0
0
LINE
5
3a01
8
0-0
6
CONTINUOUS
62
  7
10
1336.953
20
939.288
30
0.0
11
1336.775
21
939.621
31
0.0
0
LINE
5
3a02
8
0-0
6
CONTINUOUS
62
  7
10
1336.775
20
939.621
30
0.0
11
1336.603
21
939.959
31
0.0
0
LINE
5
3a03
8
0-0
6
CONTINUOUS
62
  7
10
1336.603
20
939.959
30
0.0
11
1336.437
21
940.303
31
0.0
0
LINE
5
3a04
8
0-0
6
CONTINUOUS
62
  7
10
1336.437
20
940.303
30
0.0
11
1336.274
21
940.654
31
0.0
0
LINE
5
3a05
8
0-0
6
CONTINUOUS
62
  7
10
1336.274
20
940.654
30
0.0
11
1336.118
21
941.011
31
0.0
0
LINE
5
3a06
8
0-0
6
CONTINUOUS
62
  7
10
1336.118
20
941.011
30
0.0
11
1335.965
21
941.375
31
0.0
0
LINE
5
3a07
8
0-0
6
CONTINUOUS
62
  7
10
1335.965
20
941.375
30
0.0
11
1335.818
21
941.746
31
0.0
0
LINE
5
3a08
8
0-0
6
CONTINUOUS
62
  7
10
1335.818
20
941.746
30
0.0
11
1335.675
21
942.123
31
0.0
0
LINE
5
3a09
8
0-0
6
CONTINUOUS
62
  7
10
1335.675
20
942.123
30
0.0
11
1335.538
21
942.507
31
0.0
0
LINE
5
3a0a
8
0-0
6
CONTINUOUS
62
  7
10
1335.538
20
942.507
30
0.0
11
1335.405
21
942.896
31
0.0
0
LINE
5
3a0b
8
0-0
6
CONTINUOUS
62
  7
10
1335.405
20
942.896
30
0.0
11
1335.277
21
943.290
31
0.0
0
LINE
5
3a0c
8
0-0
6
CONTINUOUS
62
  7
10
1335.277
20
943.290
30
0.0
11
1335.155
21
943.689
31
0.0
0
LINE
5
3a0d
8
0-0
6
CONTINUOUS
62
  7
10
1335.155
20
943.689
30
0.0
11
1335.037
21
944.092
31
0.0
0
LINE
5
3a0e
8
0-0
6
CONTINUOUS
62
  7
10
1335.037
20
944.092
30
0.0
11
1334.924
21
944.498
31
0.0
0
LINE
5
3a0f
8
0-0
6
CONTINUOUS
62
  7
10
1334.924
20
944.498
30
0.0
11
1334.816
21
944.907
31
0.0
0
LINE
5
3a10
8
0-0
6
CONTINUOUS
62
  7
10
1334.816
20
944.907
30
0.0
11
1334.713
21
945.318
31
0.0
0
LINE
5
3a11
8
0-0
6
CONTINUOUS
62
  7
10
1334.713
20
945.318
30
0.0
11
1334.614
21
945.729
31
0.0
0
LINE
5
3a12
8
0-0
6
CONTINUOUS
62
  7
10
1334.614
20
945.729
30
0.0
11
1334.521
21
946.140
31
0.0
0
LINE
5
3a13
8
0-0
6
CONTINUOUS
62
  7
10
1334.521
20
946.140
30
0.0
11
1334.432
21
946.549
31
0.0
0
LINE
5
3a14
8
0-0
6
CONTINUOUS
62
  7
10
1334.432
20
946.549
30
0.0
11
1334.347
21
946.956
31
0.0
0
LINE
5
3a15
8
0-0
6
CONTINUOUS
62
  7
10
1334.347
20
946.956
30
0.0
11
1334.267
21
947.359
31
0.0
0
LINE
5
3a16
8
0-0
6
CONTINUOUS
62
  7
10
1334.267
20
947.359
30
0.0
11
1334.191
21
947.757
31
0.0
0
LINE
5
3a17
8
0-0
6
CONTINUOUS
62
  7
10
1334.191
20
947.757
30
0.0
11
1334.120
21
948.148
31
0.0
0
LINE
5
3a18
8
0-0
6
CONTINUOUS
62
  7
10
1334.120
20
948.148
30
0.0
11
1334.052
21
948.533
31
0.0
0
LINE
5
3a19
8
0-0
6
CONTINUOUS
62
  7
10
1334.052
20
948.533
30
0.0
11
1333.989
21
948.908
31
0.0
0
LINE
5
3a1a
8
0-0
6
CONTINUOUS
62
  7
10
1333.989
20
948.908
30
0.0
11
1333.930
21
949.274
31
0.0
0
LINE
5
3a1b
8
0-0
6
CONTINUOUS
62
  7
10
1333.930
20
949.274
30
0.0
11
1333.874
21
949.630
31
0.0
0
LINE
5
3a1c
8
0-0
6
CONTINUOUS
62
  7
10
1333.874
20
949.630
30
0.0
11
1333.823
21
949.975
31
0.0
0
LINE
5
3a1d
8
0-0
6
CONTINUOUS
62
  7
10
1333.823
20
949.975
30
0.0
11
1333.774
21
950.308
31
0.0
0
LINE
5
3a1e
8
0-0
6
CONTINUOUS
62
  7
10
1333.774
20
950.308
30
0.0
11
1333.729
21
950.630
31
0.0
0
LINE
5
3a1f
8
0-0
6
CONTINUOUS
62
  7
10
1333.729
20
950.630
30
0.0
11
1333.688
21
950.939
31
0.0
0
LINE
5
3a20
8
0-0
6
CONTINUOUS
62
  7
10
1333.688
20
950.939
30
0.0
11
1333.649
21
951.237
31
0.0
0
LINE
5
3a21
8
0-0
6
CONTINUOUS
62
  7
10
1333.649
20
951.237
30
0.0
11
1333.613
21
951.524
31
0.0
0
LINE
5
3a22
8
0-0
6
CONTINUOUS
62
  7
10
1333.613
20
951.524
30
0.0
11
1333.580
21
951.800
31
0.0
0
LINE
5
3a23
8
0-0
6
CONTINUOUS
62
  7
10
1333.580
20
951.800
30
0.0
11
1333.549
21
952.066
31
0.0
0
LINE
5
3a24
8
0-0
6
CONTINUOUS
62
  7
10
1333.549
20
952.066
30
0.0
11
1333.521
21
952.324
31
0.0
0
LINE
5
3a25
8
0-0
6
CONTINUOUS
62
  7
10
1333.521
20
952.324
30
0.0
11
1333.494
21
952.574
31
0.0
0
LINE
5
3a26
8
0-0
6
CONTINUOUS
62
  7
10
1333.494
20
952.574
30
0.0
11
1333.469
21
952.819
31
0.0
0
LINE
5
3a27
8
0-0
6
CONTINUOUS
62
  7
10
1333.469
20
952.819
30
0.0
11
1333.445
21
953.061
31
0.0
0
LINE
5
3a28
8
0-0
6
CONTINUOUS
62
  7
10
1333.445
20
953.061
30
0.0
11
1333.422
21
953.300
31
0.0
0
LINE
5
3a29
8
0-0
6
CONTINUOUS
62
  7
10
1333.422
20
953.300
30
0.0
11
1333.399
21
953.539
31
0.0
0
LINE
5
3a2a
8
0-0
6
CONTINUOUS
62
  7
10
1333.399
20
953.539
30
0.0
11
1333.378
21
953.779
31
0.0
0
LINE
5
3a2b
8
0-0
6
CONTINUOUS
62
  7
10
1333.378
20
953.779
30
0.0
11
1333.355
21
954.023
31
0.0
0
LINE
5
3a2c
8
0-0
6
CONTINUOUS
62
  7
10
1333.355
20
954.023
30
0.0
11
1333.332
21
954.272
31
0.0
0
LINE
5
3a2d
8
0-0
6
CONTINUOUS
62
  7
10
1333.332
20
954.272
30
0.0
11
1333.308
21
954.527
31
0.0
0
LINE
5
3a2e
8
0-0
6
CONTINUOUS
62
  7
10
1333.308
20
954.527
30
0.0
11
1333.282
21
954.788
31
0.0
0
LINE
5
3a2f
8
0-0
6
CONTINUOUS
62
  7
10
1333.282
20
954.788
30
0.0
11
1333.254
21
955.056
31
0.0
0
LINE
5
3a30
8
0-0
6
CONTINUOUS
62
  7
10
1333.254
20
955.056
30
0.0
11
1333.223
21
955.330
31
0.0
0
LINE
5
3a31
8
0-0
6
CONTINUOUS
62
  7
10
1333.223
20
955.330
30
0.0
11
1333.189
21
955.608
31
0.0
0
LINE
5
3a32
8
0-0
6
CONTINUOUS
62
  7
10
1341.825
20
977.768
30
0.0
11
1337.951
21
973.608
31
0.0
0
LINE
5
3a33
8
0-0
6
CONTINUOUS
62
  7
10
1341.825
20
933.448
30
0.0
11
1337.951
21
937.608
31
0.0
0
LINE
5
3a34
8
0-0
6
CONTINUOUS
62
  7
10
1432.673
20
1050.385
30
0.0
11
1354.266
21
966.183
31
0.0
0
LINE
5
3a35
8
0-0
6
CONTINUOUS
62
  7
10
1434.189
20
1050.544
30
0.0
11
1432.673
21
1050.385
31
0.0
0
LINE
5
3a36
8
0-0
6
CONTINUOUS
62
  7
10
1434.189
20
860.672
30
0.0
11
1432.673
21
860.832
31
0.0
0
LINE
5
3a37
8
0-0
6
CONTINUOUS
62
  7
10
746.757
20
542.783
30
0.0
11
806.757
21
542.783
31
0.0
0
LINE
5
3a38
8
0-0
6
CONTINUOUS
62
  7
10
787.757
20
547.783
30
0.0
11
787.757
21
542.783
31
0.0
0
LINE
5
3a39
8
0-0
6
CONTINUOUS
62
  7
10
806.757
20
547.783
30
0.0
11
1089.757
21
547.783
31
0.0
0
LINE
5
3a3a
8
0-0
6
CONTINUOUS
62
  7
10
806.757
20
1058.108
30
0.0
11
1089.757
21
1058.108
31
0.0
0
LINE
5
3a3b
8
0-0
6
CONTINUOUS
62
  7
10
806.757
20
853.108
30
0.0
11
1089.757
21
853.108
31
0.0
0
LINE
5
3a3c
8
0-0
6
CONTINUOUS
62
  7
10
806.757
20
1056.608
30
0.0
11
1089.757
21
1056.608
31
0.0
0
LINE
5
3a3d
8
0-0
6
CONTINUOUS
62
  7
10
806.757
20
854.608
30
0.0
11
1089.757
21
854.608
31
0.0
0
LINE
5
3a3e
8
0-0
6
CONTINUOUS
62
  7
10
746.757
20
1074.608
30
0.0
11
806.757
21
1074.608
31
0.0
0
LINE
5
3a3f
8
0-1
6
CONTINUOUS
62
  7
10
746.757
20
1074.608
30
0.0
11
746.757
21
836.608
31
0.0
0
LINE
5
3a40
8
0-0
6
CONTINUOUS
62
  7
10
746.757
20
836.608
30
0.0
11
806.757
21
836.608
31
0.0
0
LINE
5
3a41
8
0-0
6
CONTINUOUS
62
  7
10
806.757
20
1074.608
30
0.0
11
806.757
21
836.608
31
0.0
0
LINE
5
3a42
8
0-1
6
CONTINUOUS
62
  7
10
787.757
20
1074.608
30
0.0
11
787.757
21
836.608
31
0.0
0
LINE
5
3a43
8
0-0
6
CONTINUOUS
62
  7
10
1414.189
20
855.736
30
0.0
11
1342.121
21
933.129
31
0.0
0
LINE
5
3a44
8
0-0
6
CONTINUOUS
62
  7
10
1432.673
20
860.832
30
0.0
11
1354.562
21
944.715
31
0.0
0
LINE
5
3a45
8
0-0
6
CONTINUOUS
62
  7
10
1337.951
20
937.608
30
0.0
11
1342.121
21
933.129
31
0.0
0
LINE
5
3a46
8
0-0
6
CONTINUOUS
62
  7
10
361.757
20
860.672
30
0.0
11
356.757
21
856.125
31
0.0
0
LINE
5
3a47
8
0-0
6
CONTINUOUS
62
  7
10
361.757
20
1050.544
30
0.0
11
356.757
21
1055.092
31
0.0
0
LINE
5
3a48
8
0-0
6
CONTINUOUS
62
  7
10
363.273
20
1050.385
30
0.0
11
441.680
21
966.183
31
0.0
0
LINE
5
3a49
8
0-0
6
CONTINUOUS
62
  7
10
361.757
20
1050.544
30
0.0
11
363.273
21
1050.385
31
0.0
0
LINE
5
3a4a
8
0-0
6
CONTINUOUS
62
  7
10
361.757
20
860.672
30
0.0
11
363.273
21
860.832
31
0.0
0
LINE
5
3a4b
8
0-0
6
CONTINUOUS
62
  7
10
363.273
20
860.832
30
0.0
11
441.384
21
944.715
31
0.0
0
LINE
5
3a4c
8
0-0
6
CONTINUOUS
62
  7
10
361.757
20
860.672
30
0.0
11
356.757
21
856.125
31
0.0
0
LINE
5
3a4d
8
0-0
6
CONTINUOUS
62
  7
10
361.757
20
860.672
30
0.0
11
363.273
21
860.832
31
0.0
0
LINE
5
3a4e
8
0-0
6
CONTINUOUS
62
  7
10
475.110
20
990.608
30
0.0
11
475.630
21
989.843
31
0.0
0
LINE
5
3a4f
8
0-0
6
CONTINUOUS
62
  7
10
475.630
20
989.843
30
0.0
11
476.154
21
989.079
31
0.0
0
LINE
5
3a50
8
0-0
6
CONTINUOUS
62
  7
10
476.154
20
989.079
30
0.0
11
476.684
21
988.315
31
0.0
0
LINE
5
3a51
8
0-0
6
CONTINUOUS
62
  7
10
476.684
20
988.315
30
0.0
11
477.221
21
987.547
31
0.0
0
LINE
5
3a52
8
0-0
6
CONTINUOUS
62
  7
10
477.221
20
987.547
30
0.0
11
477.764
21
986.776
31
0.0
0
LINE
5
3a53
8
0-0
6
CONTINUOUS
62
  7
10
477.764
20
986.776
30
0.0
11
478.312
21
986.000
31
0.0
0
LINE
5
3a54
8
0-0
6
CONTINUOUS
62
  7
10
478.312
20
986.000
30
0.0
11
478.865
21
985.220
31
0.0
0
LINE
5
3a55
8
0-0
6
CONTINUOUS
62
  7
10
478.865
20
985.220
30
0.0
11
479.421
21
984.436
31
0.0
0
LINE
5
3a56
8
0-0
6
CONTINUOUS
62
  7
10
479.421
20
984.436
30
0.0
11
479.977
21
983.649
31
0.0
0
LINE
5
3a57
8
0-0
6
CONTINUOUS
62
  7
10
479.977
20
983.649
30
0.0
11
480.533
21
982.862
31
0.0
0
LINE
5
3a58
8
0-0
6
CONTINUOUS
62
  7
10
480.533
20
982.862
30
0.0
11
481.085
21
982.075
31
0.0
0
LINE
5
3a59
8
0-0
6
CONTINUOUS
62
  7
10
481.085
20
982.075
30
0.0
11
481.633
21
981.290
31
0.0
0
LINE
5
3a5a
8
0-0
6
CONTINUOUS
62
  7
10
481.633
20
981.290
30
0.0
11
482.174
21
980.509
31
0.0
0
LINE
5
3a5b
8
0-0
6
CONTINUOUS
62
  7
10
482.174
20
980.509
30
0.0
11
482.706
21
979.734
31
0.0
0
LINE
5
3a5c
8
0-0
6
CONTINUOUS
62
  7
10
482.706
20
979.734
30
0.0
11
483.228
21
978.968
31
0.0
0
LINE
5
3a5d
8
0-0
6
CONTINUOUS
62
  7
10
483.228
20
978.968
30
0.0
11
483.738
21
978.212
31
0.0
0
LINE
5
3a5e
8
0-0
6
CONTINUOUS
62
  7
10
483.738
20
978.212
30
0.0
11
484.235
21
977.467
31
0.0
0
LINE
5
3a5f
8
0-0
6
CONTINUOUS
62
  7
10
484.235
20
977.467
30
0.0
11
484.718
21
976.736
31
0.0
0
LINE
5
3a60
8
0-0
6
CONTINUOUS
62
  7
10
484.718
20
976.736
30
0.0
11
485.185
21
976.019
31
0.0
0
LINE
5
3a61
8
0-0
6
CONTINUOUS
62
  7
10
485.185
20
976.019
30
0.0
11
485.635
21
975.318
31
0.0
0
LINE
5
3a62
8
0-0
6
CONTINUOUS
62
  7
10
485.635
20
975.318
30
0.0
11
486.068
21
974.634
31
0.0
0
LINE
5
3a63
8
0-0
6
CONTINUOUS
62
  7
10
486.068
20
974.634
30
0.0
11
486.483
21
973.968
31
0.0
0
LINE
5
3a64
8
0-0
6
CONTINUOUS
62
  7
10
486.483
20
973.968
30
0.0
11
486.880
21
973.319
31
0.0
0
LINE
5
3a65
8
0-0
6
CONTINUOUS
62
  7
10
486.880
20
973.319
30
0.0
11
487.257
21
972.688
31
0.0
0
LINE
5
3a66
8
0-0
6
CONTINUOUS
62
  7
10
487.257
20
972.688
30
0.0
11
487.616
21
972.074
31
0.0
0
LINE
5
3a67
8
0-0
6
CONTINUOUS
62
  7
10
487.616
20
972.074
30
0.0
11
487.956
21
971.478
31
0.0
0
LINE
5
3a68
8
0-0
6
CONTINUOUS
62
  7
10
487.956
20
971.478
30
0.0
11
488.276
21
970.898
31
0.0
0
LINE
5
3a69
8
0-0
6
CONTINUOUS
62
  7
10
488.276
20
970.898
30
0.0
11
488.578
21
970.334
31
0.0
0
LINE
5
3a6a
8
0-0
6
CONTINUOUS
62
  7
10
488.578
20
970.334
30
0.0
11
488.861
21
969.784
31
0.0
0
LINE
5
3a6b
8
0-0
6
CONTINUOUS
62
  7
10
488.861
20
969.784
30
0.0
11
489.126
21
969.247
31
0.0
0
LINE
5
3a6c
8
0-0
6
CONTINUOUS
62
  7
10
489.126
20
969.247
30
0.0
11
489.373
21
968.721
31
0.0
0
LINE
5
3a6d
8
0-0
6
CONTINUOUS
62
  7
10
489.373
20
968.721
30
0.0
11
489.603
21
968.206
31
0.0
0
LINE
5
3a6e
8
0-0
6
CONTINUOUS
62
  7
10
489.603
20
968.206
30
0.0
11
489.816
21
967.699
31
0.0
0
LINE
5
3a6f
8
0-0
6
CONTINUOUS
62
  7
10
489.816
20
967.699
30
0.0
11
490.013
21
967.198
31
0.0
0
LINE
5
3a70
8
0-0
6
CONTINUOUS
62
  7
10
490.013
20
967.198
30
0.0
11
490.195
21
966.702
31
0.0
0
LINE
5
3a71
8
0-0
6
CONTINUOUS
62
  7
10
490.195
20
966.702
30
0.0
11
490.363
21
966.208
31
0.0
0
LINE
5
3a72
8
0-0
6
CONTINUOUS
62
  7
10
490.363
20
966.208
30
0.0
11
490.517
21
965.716
31
0.0
0
LINE
5
3a73
8
0-0
6
CONTINUOUS
62
  7
10
490.517
20
965.716
30
0.0
11
490.659
21
965.222
31
0.0
0
LINE
5
3a74
8
0-0
6
CONTINUOUS
62
  7
10
490.659
20
965.222
30
0.0
11
490.788
21
964.726
31
0.0
0
LINE
5
3a75
8
0-0
6
CONTINUOUS
62
  7
10
490.788
20
964.726
30
0.0
11
490.907
21
964.225
31
0.0
0
LINE
5
3a76
8
0-0
6
CONTINUOUS
62
  7
10
490.907
20
964.225
30
0.0
11
491.015
21
963.719
31
0.0
0
LINE
5
3a77
8
0-0
6
CONTINUOUS
62
  7
10
491.015
20
963.719
30
0.0
11
491.114
21
963.204
31
0.0
0
LINE
5
3a78
8
0-0
6
CONTINUOUS
62
  7
10
491.114
20
963.204
30
0.0
11
491.204
21
962.681
31
0.0
0
LINE
5
3a79
8
0-0
6
CONTINUOUS
62
  7
10
491.204
20
962.681
30
0.0
11
491.286
21
962.145
31
0.0
0
LINE
5
3a7a
8
0-0
6
CONTINUOUS
62
  7
10
491.286
20
962.145
30
0.0
11
491.360
21
961.597
31
0.0
0
LINE
5
3a7b
8
0-0
6
CONTINUOUS
62
  7
10
491.360
20
961.597
30
0.0
11
491.427
21
961.034
31
0.0
0
LINE
5
3a7c
8
0-0
6
CONTINUOUS
62
  7
10
491.427
20
961.034
30
0.0
11
491.488
21
960.453
31
0.0
0
LINE
5
3a7d
8
0-0
6
CONTINUOUS
62
  7
10
491.488
20
960.453
30
0.0
11
491.543
21
959.852
31
0.0
0
LINE
5
3a7e
8
0-0
6
CONTINUOUS
62
  7
10
491.543
20
959.852
30
0.0
11
491.592
21
959.228
31
0.0
0
LINE
5
3a7f
8
0-0
6
CONTINUOUS
62
  7
10
491.592
20
959.228
30
0.0
11
491.636
21
958.577
31
0.0
0
LINE
5
3a80
8
0-0
6
CONTINUOUS
62
  7
10
491.636
20
958.577
30
0.0
11
491.674
21
957.895
31
0.0
0
LINE
5
3a81
8
0-0
6
CONTINUOUS
62
  7
10
491.674
20
957.895
30
0.0
11
491.707
21
957.177
31
0.0
0
LINE
5
3a82
8
0-0
6
CONTINUOUS
62
  7
10
491.707
20
957.177
30
0.0
11
491.735
21
956.417
31
0.0
0
LINE
5
3a83
8
0-0
6
CONTINUOUS
62
  7
10
491.735
20
956.417
30
0.0
11
491.757
21
955.608
31
0.0
0
LINE
5
3a84
8
0-0
6
CONTINUOUS
62
  7
10
475.110
20
920.608
30
0.0
11
475.630
21
921.374
31
0.0
0
LINE
5
3a85
8
0-0
6
CONTINUOUS
62
  7
10
475.630
20
921.374
30
0.0
11
476.154
21
922.137
31
0.0
0
LINE
5
3a86
8
0-0
6
CONTINUOUS
62
  7
10
476.154
20
922.137
30
0.0
11
476.684
21
922.902
31
0.0
0
LINE
5
3a87
8
0-0
6
CONTINUOUS
62
  7
10
476.684
20
922.902
30
0.0
11
477.221
21
923.669
31
0.0
0
LINE
5
3a88
8
0-0
6
CONTINUOUS
62
  7
10
477.221
20
923.669
30
0.0
11
477.764
21
924.440
31
0.0
0
LINE
5
3a89
8
0-0
6
CONTINUOUS
62
  7
10
477.764
20
924.440
30
0.0
11
478.312
21
925.216
31
0.0
0
LINE
5
3a8a
8
0-0
6
CONTINUOUS
62
  7
10
478.312
20
925.216
30
0.0
11
478.865
21
925.996
31
0.0
0
LINE
5
3a8b
8
0-0
6
CONTINUOUS
62
  7
10
478.865
20
925.996
30
0.0
11
479.421
21
926.780
31
0.0
0
LINE
5
3a8c
8
0-0
6
CONTINUOUS
62
  7
10
479.421
20
926.780
30
0.0
11
479.977
21
927.567
31
0.0
0
LINE
5
3a8d
8
0-0
6
CONTINUOUS
62
  7
10
479.977
20
927.567
30
0.0
11
480.533
21
928.355
31
0.0
0
LINE
5
3a8e
8
0-0
6
CONTINUOUS
62
  7
10
480.533
20
928.355
30
0.0
11
481.085
21
929.142
31
0.0
0
LINE
5
3a8f
8
0-0
6
CONTINUOUS
62
  7
10
481.085
20
929.142
30
0.0
11
481.633
21
929.927
31
0.0
0
LINE
5
3a90
8
0-0
6
CONTINUOUS
62
  7
10
481.633
20
929.927
30
0.0
11
482.174
21
930.708
31
0.0
0
LINE
5
3a91
8
0-0
6
CONTINUOUS
62
  7
10
482.174
20
930.708
30
0.0
11
482.706
21
931.482
31
0.0
0
LINE
5
3a92
8
0-0
6
CONTINUOUS
62
  7
10
482.706
20
931.482
30
0.0
11
483.228
21
932.248
31
0.0
0
LINE
5
3a93
8
0-0
6
CONTINUOUS
62
  7
10
483.228
20
932.248
30
0.0
11
483.738
21
933.005
31
0.0
0
LINE
5
3a94
8
0-0
6
CONTINUOUS
62
  7
10
483.738
20
933.005
30
0.0
11
484.235
21
933.749
31
0.0
0
LINE
5
3a95
8
0-0
6
CONTINUOUS
62
  7
10
484.235
20
933.749
30
0.0
11
484.718
21
934.481
31
0.0
0
LINE
5
3a96
8
0-0
6
CONTINUOUS
62
  7
10
484.718
20
934.481
30
0.0
11
485.185
21
935.197
31
0.0
0
LINE
5
3a97
8
0-0
6
CONTINUOUS
62
  7
10
485.185
20
935.197
30
0.0
11
485.635
21
935.898
31
0.0
0
LINE
5
3a98
8
0-0
6
CONTINUOUS
62
  7
10
485.635
20
935.898
30
0.0
11
486.068
21
936.582
31
0.0
0
LINE
5
3a99
8
0-0
6
CONTINUOUS
62
  7
10
486.068
20
936.582
30
0.0
11
486.483
21
937.249
31
0.0
0
LINE
5
3a9a
8
0-0
6
CONTINUOUS
62
  7
10
486.483
20
937.249
30
0.0
11
486.880
21
937.898
31
0.0
0
LINE
5
3a9b
8
0-0
6
CONTINUOUS
62
  7
10
486.880
20
937.898
30
0.0
11
487.257
21
938.529
31
0.0
0
LINE
5
3a9c
8
0-0
6
CONTINUOUS
62
  7
10
487.257
20
938.529
30
0.0
11
487.616
21
939.142
31
0.0
0
LINE
5
3a9d
8
0-0
6
CONTINUOUS
62
  7
10
487.616
20
939.142
30
0.0
11
487.956
21
939.739
31
0.0
0
LINE
5
3a9e
8
0-0
6
CONTINUOUS
62
  7
10
487.956
20
939.739
30
0.0
11
488.276
21
940.318
31
0.0
0
LINE
5
3a9f
8
0-0
6
CONTINUOUS
62
  7
10
488.276
20
940.318
30
0.0
11
488.578
21
940.883
31
0.0
0
LINE
5
3aa0
8
0-0
6
CONTINUOUS
62
  7
10
488.578
20
940.883
30
0.0
11
488.861
21
941.433
31
0.0
0
LINE
5
3aa1
8
0-0
6
CONTINUOUS
62
  7
10
488.861
20
941.433
30
0.0
11
489.126
21
941.970
31
0.0
0
LINE
5
3aa2
8
0-0
6
CONTINUOUS
62
  7
10
489.126
20
941.970
30
0.0
11
489.373
21
942.495
31
0.0
0
LINE
5
3aa3
8
0-0
6
CONTINUOUS
62
  7
10
489.373
20
942.495
30
0.0
11
489.603
21
943.010
31
0.0
0
LINE
5
3aa4
8
0-0
6
CONTINUOUS
62
  7
10
489.603
20
943.010
30
0.0
11
489.816
21
943.518
31
0.0
0
LINE
5
3aa5
8
0-0
6
CONTINUOUS
62
  7
10
489.816
20
943.518
30
0.0
11
490.013
21
944.018
31
0.0
0
LINE
5
3aa6
8
0-0
6
CONTINUOUS
62
  7
10
490.013
20
944.018
30
0.0
11
490.195
21
944.515
31
0.0
0
LINE
5
3aa7
8
0-0
6
CONTINUOUS
62
  7
10
490.195
20
944.515
30
0.0
11
490.363
21
945.008
31
0.0
0
LINE
5
3aa8
8
0-0
6
CONTINUOUS
62
  7
10
490.363
20
945.008
30
0.0
11
490.517
21
945.501
31
0.0
0
LINE
5
3aa9
8
0-0
6
CONTINUOUS
62
  7
10
490.517
20
945.501
30
0.0
11
490.659
21
945.994
31
0.0
0
LINE
5
3aaa
8
0-0
6
CONTINUOUS
62
  7
10
490.659
20
945.994
30
0.0
11
490.788
21
946.491
31
0.0
0
LINE
5
3aab
8
0-0
6
CONTINUOUS
62
  7
10
490.788
20
946.491
30
0.0
11
490.907
21
946.991
31
0.0
0
LINE
5
3aac
8
0-0
6
CONTINUOUS
62
  7
10
490.907
20
946.991
30
0.0
11
491.015
21
947.498
31
0.0
0
LINE
5
3aad
8
0-0
6
CONTINUOUS
62
  7
10
491.015
20
947.498
30
0.0
11
491.114
21
948.012
31
0.0
0
LINE
5
3aae
8
0-0
6
CONTINUOUS
62
  7
10
491.114
20
948.012
30
0.0
11
491.204
21
948.536
31
0.0
0
LINE
5
3aaf
8
0-0
6
CONTINUOUS
62
  7
10
491.204
20
948.536
30
0.0
11
491.286
21
949.071
31
0.0
0
LINE
5
3ab0
8
0-0
6
CONTINUOUS
62
  7
10
491.286
20
949.071
30
0.0
11
491.360
21
949.619
31
0.0
0
LINE
5
3ab1
8
0-0
6
CONTINUOUS
62
  7
10
491.360
20
949.619
30
0.0
11
491.427
21
950.182
31
0.0
0
LINE
5
3ab2
8
0-0
6
CONTINUOUS
62
  7
10
491.427
20
950.182
30
0.0
11
491.488
21
950.763
31
0.0
0
LINE
5
3ab3
8
0-0
6
CONTINUOUS
62
  7
10
491.488
20
950.763
30
0.0
11
491.543
21
951.364
31
0.0
0
LINE
5
3ab4
8
0-0
6
CONTINUOUS
62
  7
10
491.543
20
951.364
30
0.0
11
491.592
21
951.988
31
0.0
0
LINE
5
3ab5
8
0-0
6
CONTINUOUS
62
  7
10
491.592
20
951.988
30
0.0
11
491.636
21
952.639
31
0.0
0
LINE
5
3ab6
8
0-0
6
CONTINUOUS
62
  7
10
491.636
20
952.639
30
0.0
11
491.674
21
953.321
31
0.0
0
LINE
5
3ab7
8
0-0
6
CONTINUOUS
62
  7
10
491.674
20
953.321
30
0.0
11
491.707
21
954.039
31
0.0
0
LINE
5
3ab8
8
0-0
6
CONTINUOUS
62
  7
10
491.707
20
954.039
30
0.0
11
491.735
21
954.799
31
0.0
0
LINE
5
3ab9
8
0-0
6
CONTINUOUS
62
  7
10
491.735
20
954.799
30
0.0
11
491.757
21
955.608
31
0.0
0
LINE
5
3aba
8
0-0
6
CONTINUOUS
62
  7
10
405.757
20
1065.087
30
0.0
11
475.110
21
990.608
31
0.0
0
LINE
5
3abb
8
0-0
6
CONTINUOUS
62
  7
10
405.757
20
846.130
30
0.0
11
475.110
21
920.608
31
0.0
0
LINE
5
3abc
8
0-0
6
CONTINUOUS
62
  7
10
462.859
20
982.255
30
0.0
11
463.335
21
981.607
31
0.0
0
LINE
5
3abd
8
0-0
6
CONTINUOUS
62
  7
10
463.335
20
981.607
30
0.0
11
463.764
21
981.024
31
0.0
0
LINE
5
3abe
8
0-0
6
CONTINUOUS
62
  7
10
463.764
20
981.024
30
0.0
11
464.154
21
980.494
31
0.0
0
LINE
5
3abf
8
0-0
6
CONTINUOUS
62
  7
10
464.154
20
980.494
30
0.0
11
464.511
21
980.006
31
0.0
0
LINE
5
3ac0
8
0-0
6
CONTINUOUS
62
  7
10
464.511
20
980.006
30
0.0
11
464.843
21
979.552
31
0.0
0
LINE
5
3ac1
8
0-0
6
CONTINUOUS
62
  7
10
464.843
20
979.552
30
0.0
11
465.152
21
979.125
31
0.0
0
LINE
5
3ac2
8
0-0
6
CONTINUOUS
62
  7
10
465.152
20
979.125
30
0.0
11
465.444
21
978.719
31
0.0
0
LINE
5
3ac3
8
0-0
6
CONTINUOUS
62
  7
10
465.444
20
978.719
30
0.0
11
465.721
21
978.329
31
0.0
0
LINE
5
3ac4
8
0-0
6
CONTINUOUS
62
  7
10
465.721
20
978.329
30
0.0
11
465.986
21
977.951
31
0.0
0
LINE
5
3ac5
8
0-0
6
CONTINUOUS
62
  7
10
465.986
20
977.951
30
0.0
11
466.241
21
977.582
31
0.0
0
LINE
5
3ac6
8
0-0
6
CONTINUOUS
62
  7
10
466.241
20
977.582
30
0.0
11
466.486
21
977.220
31
0.0
0
LINE
5
3ac7
8
0-0
6
CONTINUOUS
62
  7
10
466.486
20
977.220
30
0.0
11
466.724
21
976.862
31
0.0
0
LINE
5
3ac8
8
0-0
6
CONTINUOUS
62
  7
10
466.724
20
976.862
30
0.0
11
466.955
21
976.507
31
0.0
0
LINE
5
3ac9
8
0-0
6
CONTINUOUS
62
  7
10
466.955
20
976.507
30
0.0
11
467.179
21
976.153
31
0.0
0
LINE
5
3aca
8
0-0
6
CONTINUOUS
62
  7
10
467.179
20
976.153
30
0.0
11
467.398
21
975.800
31
0.0
0
LINE
5
3acb
8
0-0
6
CONTINUOUS
62
  7
10
467.398
20
975.800
30
0.0
11
467.610
21
975.447
31
0.0
0
LINE
5
3acc
8
0-0
6
CONTINUOUS
62
  7
10
467.610
20
975.447
30
0.0
11
467.818
21
975.092
31
0.0
0
LINE
5
3acd
8
0-0
6
CONTINUOUS
62
  7
10
467.818
20
975.092
30
0.0
11
468.020
21
974.735
31
0.0
0
LINE
5
3ace
8
0-0
6
CONTINUOUS
62
  7
10
468.020
20
974.735
30
0.0
11
468.217
21
974.375
31
0.0
0
LINE
5
3acf
8
0-0
6
CONTINUOUS
62
  7
10
468.217
20
974.375
30
0.0
11
468.409
21
974.012
31
0.0
0
LINE
5
3ad0
8
0-0
6
CONTINUOUS
62
  7
10
468.409
20
974.012
30
0.0
11
468.596
21
973.646
31
0.0
0
LINE
5
3ad1
8
0-0
6
CONTINUOUS
62
  7
10
468.596
20
973.646
30
0.0
11
468.779
21
973.275
31
0.0
0
LINE
5
3ad2
8
0-0
6
CONTINUOUS
62
  7
10
468.779
20
973.275
30
0.0
11
468.957
21
972.900
31
0.0
0
LINE
5
3ad3
8
0-0
6
CONTINUOUS
62
  7
10
468.957
20
972.900
30
0.0
11
469.130
21
972.520
31
0.0
0
LINE
5
3ad4
8
0-0
6
CONTINUOUS
62
  7
10
469.130
20
972.520
30
0.0
11
469.299
21
972.135
31
0.0
0
LINE
5
3ad5
8
0-0
6
CONTINUOUS
62
  7
10
469.299
20
972.135
30
0.0
11
469.463
21
971.744
31
0.0
0
LINE
5
3ad6
8
0-0
6
CONTINUOUS
62
  7
10
469.463
20
971.744
30
0.0
11
469.623
21
971.348
31
0.0
0
LINE
5
3ad7
8
0-0
6
CONTINUOUS
62
  7
10
469.623
20
971.348
30
0.0
11
469.779
21
970.945
31
0.0
0
LINE
5
3ad8
8
0-0
6
CONTINUOUS
62
  7
10
469.779
20
970.945
30
0.0
11
469.930
21
970.536
31
0.0
0
LINE
5
3ad9
8
0-0
6
CONTINUOUS
62
  7
10
469.930
20
970.536
30
0.0
11
470.077
21
970.120
31
0.0
0
LINE
5
3ada
8
0-0
6
CONTINUOUS
62
  7
10
470.077
20
970.120
30
0.0
11
470.220
21
969.696
31
0.0
0
LINE
5
3adb
8
0-0
6
CONTINUOUS
62
  7
10
470.220
20
969.696
30
0.0
11
470.358
21
969.265
31
0.0
0
LINE
5
3adc
8
0-0
6
CONTINUOUS
62
  7
10
470.358
20
969.265
30
0.0
11
470.493
21
968.826
31
0.0
0
LINE
5
3add
8
0-0
6
CONTINUOUS
62
  7
10
470.493
20
968.826
30
0.0
11
470.624
21
968.379
31
0.0
0
LINE
5
3ade
8
0-0
6
CONTINUOUS
62
  7
10
470.624
20
968.379
30
0.0
11
470.752
21
967.921
31
0.0
0
LINE
5
3adf
8
0-0
6
CONTINUOUS
62
  7
10
470.752
20
967.921
30
0.0
11
470.875
21
967.454
31
0.0
0
LINE
5
3ae0
8
0-0
6
CONTINUOUS
62
  7
10
470.875
20
967.454
30
0.0
11
470.996
21
966.975
31
0.0
0
LINE
5
3ae1
8
0-0
6
CONTINUOUS
62
  7
10
470.996
20
966.975
30
0.0
11
471.114
21
966.483
31
0.0
0
LINE
5
3ae2
8
0-0
6
CONTINUOUS
62
  7
10
471.114
20
966.483
30
0.0
11
471.229
21
965.977
31
0.0
0
LINE
5
3ae3
8
0-0
6
CONTINUOUS
62
  7
10
471.229
20
965.977
30
0.0
11
471.342
21
965.456
31
0.0
0
LINE
5
3ae4
8
0-0
6
CONTINUOUS
62
  7
10
471.342
20
965.456
30
0.0
11
471.452
21
964.917
31
0.0
0
LINE
5
3ae5
8
0-0
6
CONTINUOUS
62
  7
10
471.452
20
964.917
30
0.0
11
471.561
21
964.360
31
0.0
0
LINE
5
3ae6
8
0-0
6
CONTINUOUS
62
  7
10
471.561
20
964.360
30
0.0
11
471.668
21
963.782
31
0.0
0
LINE
5
3ae7
8
0-0
6
CONTINUOUS
62
  7
10
471.668
20
963.782
30
0.0
11
471.774
21
963.181
31
0.0
0
LINE
5
3ae8
8
0-0
6
CONTINUOUS
62
  7
10
471.774
20
963.181
30
0.0
11
471.878
21
962.556
31
0.0
0
LINE
5
3ae9
8
0-0
6
CONTINUOUS
62
  7
10
471.878
20
962.556
30
0.0
11
471.982
21
961.904
31
0.0
0
LINE
5
3aea
8
0-0
6
CONTINUOUS
62
  7
10
471.982
20
961.904
30
0.0
11
472.084
21
961.225
31
0.0
0
LINE
5
3aeb
8
0-0
6
CONTINUOUS
62
  7
10
472.084
20
961.225
30
0.0
11
472.186
21
960.516
31
0.0
0
LINE
5
3aec
8
0-0
6
CONTINUOUS
62
  7
10
472.186
20
960.516
30
0.0
11
472.286
21
959.777
31
0.0
0
LINE
5
3aed
8
0-0
6
CONTINUOUS
62
  7
10
472.286
20
959.777
30
0.0
11
472.385
21
959.007
31
0.0
0
LINE
5
3aee
8
0-0
6
CONTINUOUS
62
  7
10
472.385
20
959.007
30
0.0
11
472.482
21
958.206
31
0.0
0
LINE
5
3aef
8
0-0
6
CONTINUOUS
62
  7
10
472.482
20
958.206
30
0.0
11
472.577
21
957.372
31
0.0
0
LINE
5
3af0
8
0-0
6
CONTINUOUS
62
  7
10
472.577
20
957.372
30
0.0
11
472.669
21
956.506
31
0.0
0
LINE
5
3af1
8
0-0
6
CONTINUOUS
62
  7
10
472.669
20
956.506
30
0.0
11
472.757
21
955.608
31
0.0
0
LINE
5
3af2
8
0-0
6
CONTINUOUS
62
  7
10
462.859
20
928.961
30
0.0
11
463.335
21
929.609
31
0.0
0
LINE
5
3af3
8
0-0
6
CONTINUOUS
62
  7
10
463.335
20
929.609
30
0.0
11
463.764
21
930.193
31
0.0
0
LINE
5
3af4
8
0-0
6
CONTINUOUS
62
  7
10
463.764
20
930.193
30
0.0
11
464.154
21
930.723
31
0.0
0
LINE
5
3af5
8
0-0
6
CONTINUOUS
62
  7
10
464.154
20
930.723
30
0.0
11
464.511
21
931.210
31
0.0
0
LINE
5
3af6
8
0-0
6
CONTINUOUS
62
  7
10
464.511
20
931.210
30
0.0
11
464.843
21
931.664
31
0.0
0
LINE
5
3af7
8
0-0
6
CONTINUOUS
62
  7
10
464.843
20
931.664
30
0.0
11
465.152
21
932.091
31
0.0
0
LINE
5
3af8
8
0-0
6
CONTINUOUS
62
  7
10
465.152
20
932.091
30
0.0
11
465.444
21
932.498
31
0.0
0
LINE
5
3af9
8
0-0
6
CONTINUOUS
62
  7
10
465.444
20
932.498
30
0.0
11
465.721
21
932.888
31
0.0
0
LINE
5
3afa
8
0-0
6
CONTINUOUS
62
  7
10
465.721
20
932.888
30
0.0
11
465.986
21
933.266
31
0.0
0
LINE
5
3afb
8
0-0
6
CONTINUOUS
62
  7
10
465.986
20
933.266
30
0.0
11
466.241
21
933.634
31
0.0
0
LINE
5
3afc
8
0-0
6
CONTINUOUS
62
  7
10
466.241
20
933.634
30
0.0
11
466.486
21
933.997
31
0.0
0
LINE
5
3afd
8
0-0
6
CONTINUOUS
62
  7
10
466.486
20
933.997
30
0.0
11
466.724
21
934.355
31
0.0
0
LINE
5
3afe
8
0-0
6
CONTINUOUS
62
  7
10
466.724
20
934.355
30
0.0
11
466.955
21
934.710
31
0.0
0
LINE
5
3aff
8
0-0
6
CONTINUOUS
62
  7
10
466.955
20
934.710
30
0.0
11
467.179
21
935.063
31
0.0
0
LINE
5
3b00
8
0-0
6
CONTINUOUS
62
  7
10
467.179
20
935.063
30
0.0
11
467.398
21
935.416
31
0.0
0
LINE
5
3b01
8
0-0
6
CONTINUOUS
62
  7
10
467.398
20
935.416
30
0.0
11
467.610
21
935.770
31
0.0
0
LINE
5
3b02
8
0-0
6
CONTINUOUS
62
  7
10
467.610
20
935.770
30
0.0
11
467.818
21
936.125
31
0.0
0
LINE
5
3b03
8
0-0
6
CONTINUOUS
62
  7
10
467.818
20
936.125
30
0.0
11
468.020
21
936.482
31
0.0
0
LINE
5
3b04
8
0-0
6
CONTINUOUS
62
  7
10
468.020
20
936.482
30
0.0
11
468.217
21
936.841
31
0.0
0
LINE
5
3b05
8
0-0
6
CONTINUOUS
62
  7
10
468.217
20
936.841
30
0.0
11
468.409
21
937.204
31
0.0
0
LINE
5
3b06
8
0-0
6
CONTINUOUS
62
  7
10
468.409
20
937.204
30
0.0
11
468.596
21
937.571
31
0.0
0
LINE
5
3b07
8
0-0
6
CONTINUOUS
62
  7
10
468.596
20
937.571
30
0.0
11
468.779
21
937.941
31
0.0
0
LINE
5
3b08
8
0-0
6
CONTINUOUS
62
  7
10
468.779
20
937.941
30
0.0
11
468.957
21
938.316
31
0.0
0
LINE
5
3b09
8
0-0
6
CONTINUOUS
62
  7
10
468.957
20
938.316
30
0.0
11
469.130
21
938.696
31
0.0
0
LINE
5
3b0a
8
0-0
6
CONTINUOUS
62
  7
10
469.130
20
938.696
30
0.0
11
469.299
21
939.081
31
0.0
0
LINE
5
3b0b
8
0-0
6
CONTINUOUS
62
  7
10
469.299
20
939.081
30
0.0
11
469.463
21
939.472
31
0.0
0
LINE
5
3b0c
8
0-0
6
CONTINUOUS
62
  7
10
469.463
20
939.472
30
0.0
11
469.623
21
939.869
31
0.0
0
LINE
5
3b0d
8
0-0
6
CONTINUOUS
62
  7
10
469.623
20
939.869
30
0.0
11
469.779
21
940.271
31
0.0
0
LINE
5
3b0e
8
0-0
6
CONTINUOUS
62
  7
10
469.779
20
940.271
30
0.0
11
469.930
21
940.681
31
0.0
0
LINE
5
3b0f
8
0-0
6
CONTINUOUS
62
  7
10
469.930
20
940.681
30
0.0
11
470.077
21
941.097
31
0.0
0
LINE
5
3b10
8
0-0
6
CONTINUOUS
62
  7
10
470.077
20
941.097
30
0.0
11
470.220
21
941.520
31
0.0
0
LINE
5
3b11
8
0-0
6
CONTINUOUS
62
  7
10
470.220
20
941.520
30
0.0
11
470.358
21
941.951
31
0.0
0
LINE
5
3b12
8
0-0
6
CONTINUOUS
62
  7
10
470.358
20
941.951
30
0.0
11
470.493
21
942.390
31
0.0
0
LINE
5
3b13
8
0-0
6
CONTINUOUS
62
  7
10
470.493
20
942.390
30
0.0
11
470.624
21
942.838
31
0.0
0
LINE
5
3b14
8
0-0
6
CONTINUOUS
62
  7
10
470.624
20
942.838
30
0.0
11
470.752
21
943.295
31
0.0
0
LINE
5
3b15
8
0-0
6
CONTINUOUS
62
  7
10
470.752
20
943.295
30
0.0
11
470.875
21
943.763
31
0.0
0
LINE
5
3b16
8
0-0
6
CONTINUOUS
62
  7
10
470.875
20
943.763
30
0.0
11
470.996
21
944.242
31
0.0
0
LINE
5
3b17
8
0-0
6
CONTINUOUS
62
  7
10
470.996
20
944.242
30
0.0
11
471.114
21
944.733
31
0.0
0
LINE
5
3b18
8
0-0
6
CONTINUOUS
62
  7
10
471.114
20
944.733
30
0.0
11
471.229
21
945.239
31
0.0
0
LINE
5
3b19
8
0-0
6
CONTINUOUS
62
  7
10
471.229
20
945.239
30
0.0
11
471.342
21
945.760
31
0.0
0
LINE
5
3b1a
8
0-0
6
CONTINUOUS
62
  7
10
471.342
20
945.760
30
0.0
11
471.452
21
946.299
31
0.0
0
LINE
5
3b1b
8
0-0
6
CONTINUOUS
62
  7
10
471.452
20
946.299
30
0.0
11
471.561
21
946.856
31
0.0
0
LINE
5
3b1c
8
0-0
6
CONTINUOUS
62
  7
10
471.561
20
946.856
30
0.0
11
471.668
21
947.434
31
0.0
0
LINE
5
3b1d
8
0-0
6
CONTINUOUS
62
  7
10
471.668
20
947.434
30
0.0
11
471.774
21
948.035
31
0.0
0
LINE
5
3b1e
8
0-0
6
CONTINUOUS
62
  7
10
471.774
20
948.035
30
0.0
11
471.878
21
948.661
31
0.0
0
LINE
5
3b1f
8
0-0
6
CONTINUOUS
62
  7
10
471.878
20
948.661
30
0.0
11
471.982
21
949.312
31
0.0
0
LINE
5
3b20
8
0-0
6
CONTINUOUS
62
  7
10
471.982
20
949.312
30
0.0
11
472.084
21
949.991
31
0.0
0
LINE
5
3b21
8
0-0
6
CONTINUOUS
62
  7
10
472.084
20
949.991
30
0.0
11
472.186
21
950.700
31
0.0
0
LINE
5
3b22
8
0-0
6
CONTINUOUS
62
  7
10
472.186
20
950.700
30
0.0
11
472.286
21
951.439
31
0.0
0
LINE
5
3b23
8
0-0
6
CONTINUOUS
62
  7
10
472.286
20
951.439
30
0.0
11
472.385
21
952.209
31
0.0
0
LINE
5
3b24
8
0-0
6
CONTINUOUS
62
  7
10
472.385
20
952.209
30
0.0
11
472.482
21
953.011
31
0.0
0
LINE
5
3b25
8
0-0
6
CONTINUOUS
62
  7
10
472.482
20
953.011
30
0.0
11
472.577
21
953.845
31
0.0
0
LINE
5
3b26
8
0-0
6
CONTINUOUS
62
  7
10
472.577
20
953.845
30
0.0
11
472.669
21
954.710
31
0.0
0
LINE
5
3b27
8
0-0
6
CONTINUOUS
62
  7
10
472.669
20
954.710
30
0.0
11
472.757
21
955.608
31
0.0
0
LINE
5
3b28
8
0-0
6
CONTINUOUS
62
  7
10
393.105
20
854.053
30
0.0
11
462.859
21
928.961
31
0.0
0
LINE
5
3b29
8
0-0
6
CONTINUOUS
62
  7
10
453.926
20
977.174
30
0.0
11
454.514
21
976.446
31
0.0
0
LINE
5
3b2a
8
0-0
6
CONTINUOUS
62
  7
10
454.514
20
976.446
30
0.0
11
455.031
21
975.802
31
0.0
0
LINE
5
3b2b
8
0-0
6
CONTINUOUS
62
  7
10
455.031
20
975.802
30
0.0
11
455.487
21
975.229
31
0.0
0
LINE
5
3b2c
8
0-0
6
CONTINUOUS
62
  7
10
455.487
20
975.229
30
0.0
11
455.894
21
974.712
31
0.0
0
LINE
5
3b2d
8
0-0
6
CONTINUOUS
62
  7
10
455.894
20
974.712
30
0.0
11
456.258
21
974.241
31
0.0
0
LINE
5
3b2e
8
0-0
6
CONTINUOUS
62
  7
10
456.258
20
974.241
30
0.0
11
456.588
21
973.807
31
0.0
0
LINE
5
3b2f
8
0-0
6
CONTINUOUS
62
  7
10
456.588
20
973.807
30
0.0
11
456.887
21
973.404
31
0.0
0
LINE
5
3b30
8
0-0
6
CONTINUOUS
62
  7
10
456.887
20
973.404
30
0.0
11
457.161
21
973.025
31
0.0
0
LINE
5
3b31
8
0-0
6
CONTINUOUS
62
  7
10
457.161
20
973.025
30
0.0
11
457.414
21
972.665
31
0.0
0
LINE
5
3b32
8
0-0
6
CONTINUOUS
62
  7
10
457.414
20
972.665
30
0.0
11
457.647
21
972.321
31
0.0
0
LINE
5
3b33
8
0-0
6
CONTINUOUS
62
  7
10
457.647
20
972.321
30
0.0
11
457.863
21
971.990
31
0.0
0
LINE
5
3b34
8
0-0
6
CONTINUOUS
62
  7
10
457.863
20
971.990
30
0.0
11
458.066
21
971.668
31
0.0
0
LINE
5
3b35
8
0-0
6
CONTINUOUS
62
  7
10
458.066
20
971.668
30
0.0
11
458.256
21
971.353
31
0.0
0
LINE
5
3b36
8
0-0
6
CONTINUOUS
62
  7
10
458.256
20
971.353
30
0.0
11
458.434
21
971.043
31
0.0
0
LINE
5
3b37
8
0-0
6
CONTINUOUS
62
  7
10
458.434
20
971.043
30
0.0
11
458.602
21
970.737
31
0.0
0
LINE
5
3b38
8
0-0
6
CONTINUOUS
62
  7
10
458.602
20
970.737
30
0.0
11
458.762
21
970.433
31
0.0
0
LINE
5
3b39
8
0-0
6
CONTINUOUS
62
  7
10
458.762
20
970.433
30
0.0
11
458.913
21
970.130
31
0.0
0
LINE
5
3b3a
8
0-0
6
CONTINUOUS
62
  7
10
458.913
20
970.130
30
0.0
11
459.057
21
969.828
31
0.0
0
LINE
5
3b3b
8
0-0
6
CONTINUOUS
62
  7
10
459.057
20
969.828
30
0.0
11
459.194
21
969.524
31
0.0
0
LINE
5
3b3c
8
0-0
6
CONTINUOUS
62
  7
10
459.194
20
969.524
30
0.0
11
459.325
21
969.219
31
0.0
0
LINE
5
3b3d
8
0-0
6
CONTINUOUS
62
  7
10
459.325
20
969.219
30
0.0
11
459.451
21
968.912
31
0.0
0
LINE
5
3b3e
8
0-0
6
CONTINUOUS
62
  7
10
459.451
20
968.912
30
0.0
11
459.571
21
968.603
31
0.0
0
LINE
5
3b3f
8
0-0
6
CONTINUOUS
62
  7
10
459.571
20
968.603
30
0.0
11
459.686
21
968.290
31
0.0
0
LINE
5
3b40
8
0-0
6
CONTINUOUS
62
  7
10
459.686
20
968.290
30
0.0
11
459.798
21
967.974
31
0.0
0
LINE
5
3b41
8
0-0
6
CONTINUOUS
62
  7
10
459.798
20
967.974
30
0.0
11
459.905
21
967.654
31
0.0
0
LINE
5
3b42
8
0-0
6
CONTINUOUS
62
  7
10
459.905
20
967.654
30
0.0
11
460.008
21
967.330
31
0.0
0
LINE
5
3b43
8
0-0
6
CONTINUOUS
62
  7
10
460.008
20
967.330
30
0.0
11
460.107
21
967.001
31
0.0
0
LINE
5
3b44
8
0-0
6
CONTINUOUS
62
  7
10
460.107
20
967.001
30
0.0
11
460.203
21
966.668
31
0.0
0
LINE
5
3b45
8
0-0
6
CONTINUOUS
62
  7
10
460.203
20
966.668
30
0.0
11
460.296
21
966.329
31
0.0
0
LINE
5
3b46
8
0-0
6
CONTINUOUS
62
  7
10
460.296
20
966.329
30
0.0
11
460.385
21
965.985
31
0.0
0
LINE
5
3b47
8
0-0
6
CONTINUOUS
62
  7
10
460.385
20
965.985
30
0.0
11
460.471
21
965.636
31
0.0
0
LINE
5
3b48
8
0-0
6
CONTINUOUS
62
  7
10
460.471
20
965.636
30
0.0
11
460.554
21
965.280
31
0.0
0
LINE
5
3b49
8
0-0
6
CONTINUOUS
62
  7
10
460.554
20
965.280
30
0.0
11
460.635
21
964.918
31
0.0
0
LINE
5
3b4a
8
0-0
6
CONTINUOUS
62
  7
10
460.635
20
964.918
30
0.0
11
460.712
21
964.550
31
0.0
0
LINE
5
3b4b
8
0-0
6
CONTINUOUS
62
  7
10
460.712
20
964.550
30
0.0
11
460.786
21
964.176
31
0.0
0
LINE
5
3b4c
8
0-0
6
CONTINUOUS
62
  7
10
460.786
20
964.176
30
0.0
11
460.857
21
963.795
31
0.0
0
LINE
5
3b4d
8
0-0
6
CONTINUOUS
62
  7
10
460.857
20
963.795
30
0.0
11
460.926
21
963.407
31
0.0
0
LINE
5
3b4e
8
0-0
6
CONTINUOUS
62
  7
10
460.926
20
963.407
30
0.0
11
460.991
21
963.012
31
0.0
0
LINE
5
3b4f
8
0-0
6
CONTINUOUS
62
  7
10
460.991
20
963.012
30
0.0
11
461.054
21
962.610
31
0.0
0
LINE
5
3b50
8
0-0
6
CONTINUOUS
62
  7
10
461.054
20
962.610
30
0.0
11
461.114
21
962.201
31
0.0
0
LINE
5
3b51
8
0-0
6
CONTINUOUS
62
  7
10
461.114
20
962.201
30
0.0
11
461.171
21
961.785
31
0.0
0
LINE
5
3b52
8
0-0
6
CONTINUOUS
62
  7
10
461.171
20
961.785
30
0.0
11
461.225
21
961.362
31
0.0
0
LINE
5
3b53
8
0-0
6
CONTINUOUS
62
  7
10
461.225
20
961.362
30
0.0
11
461.277
21
960.932
31
0.0
0
LINE
5
3b54
8
0-0
6
CONTINUOUS
62
  7
10
461.277
20
960.932
30
0.0
11
461.326
21
960.495
31
0.0
0
LINE
5
3b55
8
0-0
6
CONTINUOUS
62
  7
10
461.326
20
960.495
30
0.0
11
461.373
21
960.051
31
0.0
0
LINE
5
3b56
8
0-0
6
CONTINUOUS
62
  7
10
461.373
20
960.051
30
0.0
11
461.418
21
959.600
31
0.0
0
LINE
5
3b57
8
0-0
6
CONTINUOUS
62
  7
10
461.418
20
959.600
30
0.0
11
461.461
21
959.142
31
0.0
0
LINE
5
3b58
8
0-0
6
CONTINUOUS
62
  7
10
461.461
20
959.142
30
0.0
11
461.503
21
958.676
31
0.0
0
LINE
5
3b59
8
0-0
6
CONTINUOUS
62
  7
10
461.503
20
958.676
30
0.0
11
461.544
21
958.201
31
0.0
0
LINE
5
3b5a
8
0-0
6
CONTINUOUS
62
  7
10
461.544
20
958.201
30
0.0
11
461.584
21
957.715
31
0.0
0
LINE
5
3b5b
8
0-0
6
CONTINUOUS
62
  7
10
461.584
20
957.715
30
0.0
11
461.624
21
957.217
31
0.0
0
LINE
5
3b5c
8
0-0
6
CONTINUOUS
62
  7
10
461.624
20
957.217
30
0.0
11
461.666
21
956.703
31
0.0
0
LINE
5
3b5d
8
0-0
6
CONTINUOUS
62
  7
10
461.666
20
956.703
30
0.0
11
461.710
21
956.169
31
0.0
0
LINE
5
3b5e
8
0-0
6
CONTINUOUS
62
  7
10
461.710
20
956.169
30
0.0
11
461.757
21
955.608
31
0.0
0
LINE
5
3b5f
8
0-0
6
CONTINUOUS
62
  7
10
453.926
20
934.043
30
0.0
11
454.514
21
934.771
31
0.0
0
LINE
5
3b60
8
0-0
6
CONTINUOUS
62
  7
10
454.514
20
934.771
30
0.0
11
455.031
21
935.414
31
0.0
0
LINE
5
3b61
8
0-0
6
CONTINUOUS
62
  7
10
455.031
20
935.414
30
0.0
11
455.487
21
935.988
31
0.0
0
LINE
5
3b62
8
0-0
6
CONTINUOUS
62
  7
10
455.487
20
935.988
30
0.0
11
455.894
21
936.505
31
0.0
0
LINE
5
3b63
8
0-0
6
CONTINUOUS
62
  7
10
455.894
20
936.505
30
0.0
11
456.258
21
936.976
31
0.0
0
LINE
5
3b64
8
0-0
6
CONTINUOUS
62
  7
10
456.258
20
936.976
30
0.0
11
456.588
21
937.409
31
0.0
0
LINE
5
3b65
8
0-0
6
CONTINUOUS
62
  7
10
456.588
20
937.409
30
0.0
11
456.887
21
937.813
31
0.0
0
LINE
5
3b66
8
0-0
6
CONTINUOUS
62
  7
10
456.887
20
937.813
30
0.0
11
457.161
21
938.192
31
0.0
0
LINE
5
3b67
8
0-0
6
CONTINUOUS
62
  7
10
457.161
20
938.192
30
0.0
11
457.414
21
938.551
31
0.0
0
LINE
5
3b68
8
0-0
6
CONTINUOUS
62
  7
10
457.414
20
938.551
30
0.0
11
457.647
21
938.895
31
0.0
0
LINE
5
3b69
8
0-0
6
CONTINUOUS
62
  7
10
457.647
20
938.895
30
0.0
11
457.863
21
939.227
31
0.0
0
LINE
5
3b6a
8
0-0
6
CONTINUOUS
62
  7
10
457.863
20
939.227
30
0.0
11
458.066
21
939.549
31
0.0
0
LINE
5
3b6b
8
0-0
6
CONTINUOUS
62
  7
10
458.066
20
939.549
30
0.0
11
458.256
21
939.864
31
0.0
0
LINE
5
3b6c
8
0-0
6
CONTINUOUS
62
  7
10
458.256
20
939.864
30
0.0
11
458.434
21
940.173
31
0.0
0
LINE
5
3b6d
8
0-0
6
CONTINUOUS
62
  7
10
458.434
20
940.173
30
0.0
11
458.602
21
940.480
31
0.0
0
LINE
5
3b6e
8
0-0
6
CONTINUOUS
62
  7
10
458.602
20
940.480
30
0.0
11
458.762
21
940.783
31
0.0
0
LINE
5
3b6f
8
0-0
6
CONTINUOUS
62
  7
10
458.762
20
940.783
30
0.0
11
458.913
21
941.086
31
0.0
0
LINE
5
3b70
8
0-0
6
CONTINUOUS
62
  7
10
458.913
20
941.086
30
0.0
11
459.057
21
941.389
31
0.0
0
LINE
5
3b71
8
0-0
6
CONTINUOUS
62
  7
10
459.057
20
941.389
30
0.0
11
459.194
21
941.692
31
0.0
0
LINE
5
3b72
8
0-0
6
CONTINUOUS
62
  7
10
459.194
20
941.692
30
0.0
11
459.325
21
941.997
31
0.0
0
LINE
5
3b73
8
0-0
6
CONTINUOUS
62
  7
10
459.325
20
941.997
30
0.0
11
459.451
21
942.304
31
0.0
0
LINE
5
3b74
8
0-0
6
CONTINUOUS
62
  7
10
459.451
20
942.304
30
0.0
11
459.571
21
942.614
31
0.0
0
LINE
5
3b75
8
0-0
6
CONTINUOUS
62
  7
10
459.571
20
942.614
30
0.0
11
459.686
21
942.926
31
0.0
0
LINE
5
3b76
8
0-0
6
CONTINUOUS
62
  7
10
459.686
20
942.926
30
0.0
11
459.798
21
943.242
31
0.0
0
LINE
5
3b77
8
0-0
6
CONTINUOUS
62
  7
10
459.798
20
943.242
30
0.0
11
459.905
21
943.562
31
0.0
0
LINE
5
3b78
8
0-0
6
CONTINUOUS
62
  7
10
459.905
20
943.562
30
0.0
11
460.008
21
943.886
31
0.0
0
LINE
5
3b79
8
0-0
6
CONTINUOUS
62
  7
10
460.008
20
943.886
30
0.0
11
460.107
21
944.215
31
0.0
0
LINE
5
3b7a
8
0-0
6
CONTINUOUS
62
  7
10
460.107
20
944.215
30
0.0
11
460.203
21
944.548
31
0.0
0
LINE
5
3b7b
8
0-0
6
CONTINUOUS
62
  7
10
460.203
20
944.548
30
0.0
11
460.296
21
944.887
31
0.0
0
LINE
5
3b7c
8
0-0
6
CONTINUOUS
62
  7
10
460.296
20
944.887
30
0.0
11
460.385
21
945.231
31
0.0
0
LINE
5
3b7d
8
0-0
6
CONTINUOUS
62
  7
10
460.385
20
945.231
30
0.0
11
460.471
21
945.581
31
0.0
0
LINE
5
3b7e
8
0-0
6
CONTINUOUS
62
  7
10
460.471
20
945.581
30
0.0
11
460.554
21
945.936
31
0.0
0
LINE
5
3b7f
8
0-0
6
CONTINUOUS
62
  7
10
460.554
20
945.936
30
0.0
11
460.635
21
946.298
31
0.0
0
LINE
5
3b80
8
0-0
6
CONTINUOUS
62
  7
10
460.635
20
946.298
30
0.0
11
460.712
21
946.666
31
0.0
0
LINE
5
3b81
8
0-0
6
CONTINUOUS
62
  7
10
460.712
20
946.666
30
0.0
11
460.786
21
947.040
31
0.0
0
LINE
5
3b82
8
0-0
6
CONTINUOUS
62
  7
10
460.786
20
947.040
30
0.0
11
460.857
21
947.422
31
0.0
0
LINE
5
3b83
8
0-0
6
CONTINUOUS
62
  7
10
460.857
20
947.422
30
0.0
11
460.926
21
947.810
31
0.0
0
LINE
5
3b84
8
0-0
6
CONTINUOUS
62
  7
10
460.926
20
947.810
30
0.0
11
460.991
21
948.205
31
0.0
0
LINE
5
3b85
8
0-0
6
CONTINUOUS
62
  7
10
460.991
20
948.205
30
0.0
11
461.054
21
948.607
31
0.0
0
LINE
5
3b86
8
0-0
6
CONTINUOUS
62
  7
10
461.054
20
948.607
30
0.0
11
461.114
21
949.016
31
0.0
0
LINE
5
3b87
8
0-0
6
CONTINUOUS
62
  7
10
461.114
20
949.016
30
0.0
11
461.171
21
949.432
31
0.0
0
LINE
5
3b88
8
0-0
6
CONTINUOUS
62
  7
10
461.171
20
949.432
30
0.0
11
461.225
21
949.855
31
0.0
0
LINE
5
3b89
8
0-0
6
CONTINUOUS
62
  7
10
461.225
20
949.855
30
0.0
11
461.277
21
950.285
31
0.0
0
LINE
5
3b8a
8
0-0
6
CONTINUOUS
62
  7
10
461.277
20
950.285
30
0.0
11
461.326
21
950.721
31
0.0
0
LINE
5
3b8b
8
0-0
6
CONTINUOUS
62
  7
10
461.326
20
950.721
30
0.0
11
461.373
21
951.165
31
0.0
0
LINE
5
3b8c
8
0-0
6
CONTINUOUS
62
  7
10
461.373
20
951.165
30
0.0
11
461.418
21
951.616
31
0.0
0
LINE
5
3b8d
8
0-0
6
CONTINUOUS
62
  7
10
461.418
20
951.616
30
0.0
11
461.461
21
952.074
31
0.0
0
LINE
5
3b8e
8
0-0
6
CONTINUOUS
62
  7
10
461.461
20
952.074
30
0.0
11
461.503
21
952.540
31
0.0
0
LINE
5
3b8f
8
0-0
6
CONTINUOUS
62
  7
10
461.503
20
952.540
30
0.0
11
461.544
21
953.016
31
0.0
0
LINE
5
3b90
8
0-0
6
CONTINUOUS
62
  7
10
461.544
20
953.016
30
0.0
11
461.584
21
953.501
31
0.0
0
LINE
5
3b91
8
0-0
6
CONTINUOUS
62
  7
10
461.584
20
953.501
30
0.0
11
461.624
21
954.000
31
0.0
0
LINE
5
3b92
8
0-0
6
CONTINUOUS
62
  7
10
461.624
20
954.000
30
0.0
11
461.666
21
954.514
31
0.0
0
LINE
5
3b93
8
0-0
6
CONTINUOUS
62
  7
10
461.666
20
954.514
30
0.0
11
461.710
21
955.048
31
0.0
0
LINE
5
3b94
8
0-0
6
CONTINUOUS
62
  7
10
461.710
20
955.048
30
0.0
11
461.757
21
955.608
31
0.0
0
LINE
5
3b95
8
0-0
6
CONTINUOUS
62
  7
10
351.757
20
1064.454
30
0.0
11
376.757
21
1060.046
31
0.0
0
LINE
5
3b96
8
0-0
6
CONTINUOUS
62
  7
10
376.757
20
1060.046
30
0.0
11
453.926
21
977.174
31
0.0
0
LINE
5
3b97
8
0-0
6
CONTINUOUS
62
  7
10
381.792
20
1069.312
30
0.0
11
462.859
21
982.255
31
0.0
0
LINE
5
3b98
8
0-0
6
CONTINUOUS
62
  7
10
356.757
20
1055.092
30
0.0
11
351.757
21
1060.161
31
0.0
0
LINE
5
3b99
8
0-0
6
CONTINUOUS
62
  7
10
351.757
20
1064.454
30
0.0
11
351.757
21
1060.161
31
0.0
0
LINE
5
3b9a
8
0-0
6
CONTINUOUS
62
  7
10
351.757
20
1064.454
30
0.0
11
353.493
21
1074.302
31
0.0
0
LINE
5
3b9b
8
0-0
6
CONTINUOUS
62
  7
10
353.493
20
1074.302
30
0.0
11
405.757
21
1065.087
31
0.0
0
LINE
5
3b9c
8
0-0
6
CONTINUOUS
62
  7
10
356.757
20
856.125
30
0.0
11
351.757
21
851.577
31
0.0
0
LINE
5
3b9d
8
0-0
6
CONTINUOUS
62
  7
10
351.757
20
846.763
30
0.0
11
376.757
21
851.171
31
0.0
0
LINE
5
3b9e
8
0-0
6
CONTINUOUS
62
  7
10
376.757
20
851.171
30
0.0
11
453.926
21
934.043
31
0.0
0
LINE
5
3b9f
8
0-0
6
CONTINUOUS
62
  7
10
393.105
20
854.053
30
0.0
11
381.792
21
841.904
31
0.0
0
LINE
5
3ba0
8
0-0
6
CONTINUOUS
62
  7
10
351.757
20
846.763
30
0.0
11
353.493
21
836.914
31
0.0
0
LINE
5
3ba1
8
0-0
6
CONTINUOUS
62
  7
10
353.493
20
836.914
30
0.0
11
405.757
21
846.130
31
0.0
0
LINE
5
3ba2
8
0-0
6
CONTINUOUS
62
  7
10
351.757
20
851.577
30
0.0
11
351.757
21
846.763
31
0.0
0
LINE
5
3ba3
8
ADD_LINE
6
HIDDEN
62
  3
10
252.729
20
955.608
30
0.0
11
182.432
21
955.608
31
0.0
0
LINE
5
3ba4
8
ADD_LINE
6
HIDDEN
62
  3
10
252.729
20
955.608
30
0.0
11
1489.106
21
955.608
31
0.0
0
LINE
5
3ba5
8
ADD_LINE
6
HIDDEN
62
  3
10
1044.757
20
653.783
30
0.0
11
1044.757
21
547.783
31
0.0
0
LINE
5
3ba6
8
ADD_LINE
6
HIDDEN
62
  3
10
806.757
20
547.783
30
0.0
11
736.852
21
547.783
31
0.0
0
LINE
5
3ba7
8
0-2
6
CONTINUOUS
62
  7
10
351.757
20
1309.459
30
0.0
11
491.735
21
1309.459
31
0.0
0
LINE
5
3ba8
8
0-2
6
CONTINUOUS
62
  7
10
351.757
20
1151.351
30
0.0
11
351.757
21
1309.459
31
0.0
0
LINE
5
3ba9
8
0-2
6
CONTINUOUS
62
  7
10
491.735
20
1151.351
30
0.0
11
491.735
21
1309.459
31
0.0
0
LINE
5
3baa
8
0-2
6
CONTINUOUS
62
  7
10
746.757
20
1309.459
30
0.0
11
1089.757
21
1309.459
31
0.0
0
LINE
5
3bab
8
0-2
6
CONTINUOUS
62
  7
10
746.757
20
1151.351
30
0.0
11
746.757
21
1309.459
31
0.0
0
LINE
5
3bac
8
0-2
6
CONTINUOUS
62
  7
10
1089.757
20
1151.351
30
0.0
11
1089.757
21
1309.459
31
0.0
0
LINE
5
3bad
8
0-2
6
CONTINUOUS
62
  7
10
1333.282
20
1309.459
30
0.0
11
1439.189
21
1309.459
31
0.0
0
LINE
5
3bae
8
0-2
6
CONTINUOUS
62
  7
10
1333.282
20
1151.351
30
0.0
11
1333.282
21
1309.459
31
0.0
0
LINE
5
3baf
8
0-2
6
CONTINUOUS
62
  7
10
1439.189
20
1151.351
30
0.0
11
1439.189
21
1309.459
31
0.0
0
LINE
5
3bb0
8
0-2
6
CONTINUOUS
62
  7
10
746.757
20
1240.541
30
0.0
11
806.757
21
1240.541
31
0.0
0
LINE
5
3bb1
8
0-2
6
CONTINUOUS
62
  7
10
746.757
20
1151.351
30
0.0
11
746.757
21
1240.541
31
0.0
0
LINE
5
3bb2
8
0-2
6
CONTINUOUS
62
  7
10
806.757
20
1151.351
30
0.0
11
806.757
21
1240.541
31
0.0
0
LINE
5
3bb3
8
0-2
6
CONTINUOUS
62
  7
10
806.757
20
1240.541
30
0.0
11
1089.757
21
1240.541
31
0.0
0
LINE
5
3bb4
8
0-2
6
CONTINUOUS
62
  7
10
1089.757
20
1151.351
30
0.0
11
1089.757
21
1240.541
31
0.0
0
LINE
5
3bb5
8
0-2
6
CONTINUOUS
62
  7
10
604.054
20
1074.608
30
0.0
11
604.054
21
836.608
31
0.0
0
LINE
5
3bb6
8
0-2
6
CONTINUOUS
62
  7
10
693.243
20
1074.608
30
0.0
11
604.054
21
1074.608
31
0.0
0
LINE
5
3bb7
8
0-2
6
CONTINUOUS
62
  7
10
693.243
20
836.608
30
0.0
11
604.054
21
836.608
31
0.0
0
LINE
5
3bb8
8
0-2
6
CONTINUOUS
62
  7
10
1232.432
20
1058.108
30
0.0
11
1232.432
21
853.108
31
0.0
0
LINE
5
3bb9
8
0-2
6
CONTINUOUS
62
  7
10
1143.243
20
1058.108
30
0.0
11
1232.432
21
1058.108
31
0.0
0
LINE
5
3bba
8
0-2
6
CONTINUOUS
62
  7
10
1143.243
20
853.108
30
0.0
11
1232.432
21
853.108
31
0.0
0
LINE
5
3bbb
8
0-0
6
CONTINUOUS
62
  7
10
806.757
20
572.783
30
0.0
11
1066.757
21
572.783
31
0.0
0
LINE
5
3bbc
8
0-0
6
CONTINUOUS
62
  7
10
1076.757
20
572.783
30
0.0
11
1089.757
21
572.783
31
0.0
0
LINE
5
3bbd
8
0-0
6
CONTINUOUS
62
  7
10
806.757
20
654.596
30
0.0
11
806.757
21
542.783
31
0.0
0
LINE
5
3bbe
8
0-0
6
CONTINUOUS
62
  7
10
746.757
20
657.597
30
0.0
11
746.757
21
542.783
31
0.0
0
LINE
5
3bbf
8
0-2
6
CONTINUOUS
62
  7
10
604.054
20
682.788
30
0.0
11
604.054
21
542.783
31
0.0
0
LINE
5
3bc0
8
0-2
6
CONTINUOUS
62
  7
10
693.243
20
682.788
30
0.0
11
604.054
21
682.788
31
0.0
0
LINE
5
3bc1
8
0-2
6
CONTINUOUS
62
  7
10
693.243
20
542.783
30
0.0
11
604.054
21
542.783
31
0.0
0
LINE
5
3bc2
8
0-2
6
CONTINUOUS
62
  7
10
1232.432
20
653.783
30
0.0
11
1232.432
21
547.783
31
0.0
0
LINE
5
3bc3
8
0-2
6
CONTINUOUS
62
  7
10
1143.243
20
653.783
30
0.0
11
1232.432
21
653.783
31
0.0
0
LINE
5
3bc4
8
0-2
6
CONTINUOUS
62
  7
10
1143.243
20
547.783
30
0.0
11
1232.432
21
547.783
31
0.0
0
LINE
5
3bc5
8
0-2
6
CONTINUOUS
62
  7
10
746.757
20
1065.087
30
0.0
11
806.757
21
1065.087
31
0.0
0
LINE
5
3bc6
8
0-2
6
CONTINUOUS
62
  7
10
746.757
20
846.608
30
0.0
11
806.757
21
846.608
31
0.0
0
CIRCLE
5
3bc7
8
0-1
6
CONTINUOUS
62
  7
10
856.757
20
955.608
30
0.0
40
3.000
0
CIRCLE
5
3bc8
8
0-1
6
CONTINUOUS
62
  7
10
886.757
20
955.608
30
0.0
40
3.000
0
ARC
5
3bc9
8
0-0
6
CONTINUOUS
62
  7
10
1366.293
20
955.613
30
0.0
40
16.012
50
138.689087
51
222.893845
0
ARC
5
3bca
8
0-0
6
CONTINUOUS
62
  7
10
429.653
20
955.613
30
0.0
40
16.012
50
317.106140
51
401.310913
0
CIRCLE
5
3bcb
8
ADD_LINE
6
HIDDEN
62
  3
10
1044.757
20
547.783
30
0.0
40
3.000
0
CIRCLE
5
3bcc
8
ADD_LINE
6
HIDDEN
62
  3
10
746.757
20
547.783
30
0.0
40
3.000
0
CIRCLE
5
3bcd
8
ADD_LINE
6
HIDDEN
62
  3
10
746.757
20
955.608
30
0.0
40
3.000
0
ARC
5
3bce
8
0-0
6
CONTINUOUS
62
  7
10
1071.757
20
572.965
30
0.0
40
5.183
50
195.288757
51
344.711243
0
ARC
5
3bcf
8
0-0
6
CONTINUOUS
62
  7
10
1071.757
20
652.905
30
0.0
40
5.183
50
195.288757
51
344.711243
0
TEXT
5
3bd0
100
AcDbEntity
8
0-2
62
7
100
AcDbText
10
412.371
20
1311.960
30
0.0
40
9.750
41
0.800
50
0.000
1
140
100
AcDbText
0
TEXT
5
3bd1
100
AcDbEntity
8
0-2
62
7
100
AcDbText
10
908.882
20
1311.960
30
0.0
40
9.750
41
0.800
50
0.000
1
343
100
AcDbText
0
TEXT
5
3bd2
100
AcDbEntity
8
0-2
62
7
100
AcDbText
10
1376.861
20
1311.960
30
0.0
40
9.750
41
0.800
50
0.000
1
106
100
AcDbText
0
TEXT
5
3bd3
100
AcDbEntity
8
0-2
62
7
100
AcDbText
10
770.507
20
1243.041
30
0.0
40
9.750
41
0.800
50
0.000
1
60
100
AcDbText
0
TEXT
5
3bd4
100
AcDbEntity
8
0-2
62
7
100
AcDbText
10
938.882
20
1243.041
30
0.0
40
9.750
41
0.800
50
0.000
1
283
100
AcDbText
0
TEXT
5
3bd5
100
AcDbEntity
8
0-2
62
7
100
AcDbText
10
601.554
20
946.233
30
0.0
40
9.750
41
0.800
50
90.000
1
238
100
AcDbText
0
TEXT
5
3bd6
100
AcDbEntity
8
0-2
62
7
100
AcDbText
10
1229.932
20
946.233
30
0.0
40
9.750
41
0.800
50
90.000
1
205
100
AcDbText
0
TEXT
5
3bd7
100
AcDbEntity
8
0-2
62
7
100
AcDbText
10
601.554
20
603.410
30
0.0
40
9.750
41
0.800
50
90.000
1
140
100
AcDbText
0
TEXT
5
3bd8
100
AcDbEntity
8
0-2
62
7
100
AcDbText
10
1229.932
20
591.408
30
0.0
40
9.750
41
0.800
50
90.000
1
106
100
AcDbText
0
POINT
5
3bd9
8
0-2
62
  7
10
351.757
20
1309.459
30
0.0
0
POINT
5
3bda
8
0-2
62
  7
10
491.735
20
1309.459
30
0.0
0
POINT
5
3bdb
8
0-2
62
  7
10
746.757
20
1309.459
30
0.0
0
POINT
5
3bdc
8
0-2
62
  7
10
1089.757
20
1309.459
30
0.0
0
POINT
5
3bdd
8
0-2
62
  7
10
1333.282
20
1309.459
30
0.0
0
POINT
5
3bde
8
0-2
62
  7
10
1439.189
20
1309.459
30
0.0
0
POINT
5
3bdf
8
0-2
62
  7
10
746.757
20
1240.541
30
0.0
0
POINT
5
3be0
8
0-2
62
  7
10
806.757
20
1240.541
30
0.0
0
POINT
5
3be1
8
0-2
62
  7
10
1089.757
20
1240.541
30
0.0
0
POINT
5
3be2
8
0-2
62
  7
10
604.054
20
1074.608
30
0.0
0
POINT
5
3be3
8
0-2
62
  7
10
604.054
20
836.608
30
0.0
0
POINT
5
3be4
8
0-2
62
  7
10
1232.432
20
1058.108
30
0.0
0
POINT
5
3be5
8
0-2
62
  7
10
1232.432
20
853.108
30
0.0
0
POINT
5
3be6
8
0-2
62
  7
10
604.054
20
682.788
30
0.0
0
POINT
5
3be7
8
0-2
62
  7
10
604.054
20
542.783
30
0.0
0
POINT
5
3be8
8
0-2
62
  7
10
1232.432
20
653.783
30
0.0
0
POINT
5
3be9
8
0-2
62
  7
10
1232.432
20
547.783
30
0.0
0
ENDSEC
0
EOF
