0
SECTION
2
HEADER
  9
$EXTMIN
10
0
20
0
30
0
  9
$EXTMAX
10
1645.946
20
1336.284
30
0
  9
$LTSCALE
40
5.000
  9
$DIMSCALE
40
5.000
  9
$PDMODE
70
0
  9
$PDSIZE
40
40
0
ENDSEC
0
SECTION
2
TABLES
0
TABLE
2
LTYPE
70
9
0
LTYPE
5
1f4
2
CONTINUOUS
70
0
3
実線
72
65
73
0
40
0.0
0
LTYPE
5
1f5
2
DOT
70
0
3
--  --  --  --  --  --  --  --     
72
65
73
2
40
5.000
49
1.000
49
-4.000
0
LTYPE
5
1f6
2
DASHED
70
0
3
----    ----    ----    ----    
72
65
73
2
40
5.000
49
2.000
49
-3.000
0
LTYPE
5
1f7
2
DASHED2
70
0
3
------  ------  ------  ------ 
72
65
73
2
40
10.000
49
4.000
49
-6.000
0
LTYPE
5
1f8
2
CENTER
70
0
3
----- - ----- - ----- - ----- - 
72
65
73
4
40
9.000
49
6.000
49
-1.000
49
1.000
49
-1.000
0
LTYPE
5
1f9
2
CENTER2
70
0
3
----------  --  ----------  -- 
72
65
73
4
40
18.000
49
12.000
49
-2.000
49
2.000
49
-2.000
0
LTYPE
5
1fa
2
PHANTOM
70
0
3
--- - - --- - - --- - - --- - -
72
65
73
6
40
10.000
49
5.000
49
-1.000
49
1.000
49
-1.000
49
1.000
49
-1.000
0
LTYPE
5
1fb
2
PHANTOM2
70
0
3
--------  -  -  --------  -  -
72
65
73
6
40
16.000
49
6.000
49
-2.000
49
2.000
49
-2.000
49
2.000
49
-2.000
0
LTYPE
5
1fc
2
HIDDEN
70
0
3
-   -   -   -   -   -   -   -   
72
65
73
2
40
2.500
49
0.500
49
-2.000
0
ENDTAB
0
TABLE
2
STYLE
70
1
0
STYLE
5
1fd
100
AcDbSymbolTableRecord
100
AcDbTextStyleTableRecord
2
STANDARD
70
0
40
0.0
41
1.0
50
0.0
71
0
42
0.0
3
txt.shx
4
extfont.shx
0
STYLE
5
1fe
100
AcDbSymbolTableRecord
100
AcDbTextStyleTableRecord
2
TATEGAKI
70
4
40
0.0
41
1.0
50
0.0
71
0
42
0.0
3
txt.shx
4
extfont.shx
0
STYLE
5
1ff
100
AcDbSymbolTableRecord
100
AcDbTextStyleTableRecord
2
MT
70
0
40
0.0
41
1.0
50
0.0
71
0
42
0.0
3
MS Mincho
4

0
STYLE
5
200
100
AcDbSymbolTableRecord
100
AcDbTextStyleTableRecord
2
TMT
70
4
40
0.0
41
1.0
50
0.0
71
0
42
0.0
3
@MS Mincho
4

0
ENDTAB
0
TABLE
2
LAYER
5
4824
100
AcDbSymbolTable
70
10
0
LAYER
5
4825
100
AcDbSymbolTableRecord
100
AcDbLayerTableRecord
2
0
70
64
62
  7
  6
CONTINUOUS
0
LAYER
5
4826
100
AcDbSymbolTableRecord
100
AcDbLayerTableRecord
2
0-0
70
64
62
  7
  6
CONTINUOUS
0
LAYER
5
4827
100
AcDbSymbolTableRecord
100
AcDbLayerTableRecord
2
0-1
70
64
62
  7
  6
CONTINUOUS
0
LAYER
5
4828
100
AcDbSymbolTableRecord
100
AcDbLayerTableRecord
2
0-2
70
64
62
  7
  6
CONTINUOUS
0
LAYER
5
4829
100
AcDbSymbolTableRecord
100
AcDbLayerTableRecord
2
ADD_LINE
70
64
62
  -7
  6
CONTINUOUS
0
ENDTAB
0
ENDSEC
0
SECTION
2
ENTITIES
0
LINE
5
482a
8
0-0
6
CONTINUOUS
62
  7
10
456.108
20
1061.203
30
0.0
11
426.108
21
1062.703
31
0.0
0
LINE
5
482b
8
0-0
6
CONTINUOUS
62
  7
10
507.108
20
964.703
30
0.0
11
456.108
21
1061.203
31
0.0
0
LINE
5
482c
8
0-0
6
CONTINUOUS
62
  7
10
445.108
20
1045.634
30
0.0
11
430.108
21
1052.703
31
0.0
0
LINE
5
482d
8
0-0
6
CONTINUOUS
62
  7
10
426.108
20
1062.703
30
0.0
11
430.108
21
1052.703
31
0.0
0
LINE
5
482e
8
0-0
6
CONTINUOUS
62
  7
10
456.108
20
844.203
30
0.0
11
426.108
21
842.703
31
0.0
0
LINE
5
482f
8
0-0
6
CONTINUOUS
62
  7
10
507.108
20
940.703
30
0.0
11
456.108
21
844.203
31
0.0
0
LINE
5
4830
8
0-0
6
CONTINUOUS
62
  7
10
445.108
20
859.772
30
0.0
11
430.108
21
852.703
31
0.0
0
LINE
5
4831
8
0-0
6
CONTINUOUS
62
  7
10
426.108
20
842.703
30
0.0
11
430.108
21
852.703
31
0.0
0
LINE
5
4832
8
0-0
6
CONTINUOUS
62
  7
10
494.222
20
952.703
30
0.0
11
445.108
21
859.772
31
0.0
0
LINE
5
4833
8
0-0
6
CONTINUOUS
62
  7
10
494.222
20
952.703
30
0.0
11
445.108
21
1045.634
31
0.0
0
LINE
5
4834
8
ADD_LINE
6
HIDDEN
62
  3
10
555.838
20
952.703
30
0.0
11
377.459
21
952.703
31
0.0
0
LINE
5
4835
8
0-0
6
CONTINUOUS
62
  7
10
749.135
20
1064.203
30
0.0
11
749.135
21
841.203
31
0.0
0
LINE
5
4836
8
0-0
6
CONTINUOUS
62
  7
10
719.135
20
521.054
30
0.0
11
719.135
21
467.054
31
0.0
0
LINE
5
4837
8
0-0
6
CONTINUOUS
62
  7
10
749.135
20
492.559
30
0.0
11
749.135
21
454.054
31
0.0
0
LINE
5
4838
8
0-0
6
CONTINUOUS
62
  7
10
719.135
20
467.054
30
0.0
11
749.135
21
467.054
31
0.0
0
LINE
5
4839
8
0-0
6
CONTINUOUS
62
  7
10
724.135
20
521.054
30
0.0
11
724.135
21
475.054
31
0.0
0
LINE
5
483a
8
0-0
6
CONTINUOUS
62
  7
10
730.135
20
521.054
30
0.0
11
730.135
21
475.054
31
0.0
0
LINE
5
483b
8
0-0
6
CONTINUOUS
62
  7
10
738.135
20
521.054
30
0.0
11
738.135
21
475.054
31
0.0
0
LINE
5
483c
8
0-0
6
CONTINUOUS
62
  7
10
744.135
20
521.054
30
0.0
11
744.135
21
475.054
31
0.0
0
LINE
5
483d
8
0-0
6
CONTINUOUS
62
  7
10
724.135
20
475.054
30
0.0
11
730.135
21
475.054
31
0.0
0
LINE
5
483e
8
0-0
6
CONTINUOUS
62
  7
10
738.135
20
475.054
30
0.0
11
744.135
21
475.054
31
0.0
0
LINE
5
483f
8
0-0
6
CONTINUOUS
62
  7
10
724.135
20
519.054
30
0.0
11
730.135
21
519.054
31
0.0
0
LINE
5
4840
8
0-0
6
CONTINUOUS
62
  7
10
738.135
20
519.054
30
0.0
11
744.135
21
519.054
31
0.0
0
LINE
5
4841
8
0-0
6
CONTINUOUS
62
  7
10
719.135
20
521.054
30
0.0
11
724.135
21
521.054
31
0.0
0
LINE
5
4842
8
0-0
6
CONTINUOUS
62
  7
10
730.135
20
521.054
30
0.0
11
738.135
21
521.054
31
0.0
0
LINE
5
4843
8
0-0
6
CONTINUOUS
62
  7
10
744.135
20
521.054
30
0.0
11
749.135
21
521.054
31
0.0
0
LINE
5
4844
8
0-0
6
CONTINUOUS
62
  7
10
719.135
20
477.054
30
0.0
11
724.135
21
477.054
31
0.0
0
LINE
5
4845
8
0-0
6
CONTINUOUS
62
  7
10
730.135
20
477.054
30
0.0
11
738.135
21
477.054
31
0.0
0
LINE
5
4846
8
0-0
6
CONTINUOUS
62
  7
10
744.135
20
477.054
30
0.0
11
749.135
21
477.054
31
0.0
0
LINE
5
4847
8
0-2
6
CONTINUOUS
62
  7
10
597.464
20
1064.203
30
0.0
11
597.464
21
841.203
31
0.0
0
LINE
5
4848
8
0-2
6
CONTINUOUS
62
  7
10
695.521
20
1064.203
30
0.0
11
597.464
21
1064.203
31
0.0
0
LINE
5
4849
8
0-2
6
CONTINUOUS
62
  7
10
695.521
20
841.203
30
0.0
11
597.464
21
841.203
31
0.0
0
LINE
5
484a
8
0-0
6
CONTINUOUS
62
  7
10
719.135
20
952.703
30
0.0
11
923.135
21
952.703
31
0.0
0
LINE
5
484b
8
0-0
6
CONTINUOUS
62
  7
10
929.135
20
952.703
30
0.0
11
953.135
21
952.703
31
0.0
0
LINE
5
484c
8
0-0
6
CONTINUOUS
62
  7
10
959.135
20
952.703
30
0.0
11
1119.135
21
952.703
31
0.0
0
LINE
5
484d
8
0-0
6
CONTINUOUS
62
  7
10
719.135
20
1044.703
30
0.0
11
749.135
21
1051.203
31
0.0
0
LINE
5
484e
8
0-0
6
CONTINUOUS
62
  7
10
719.135
20
860.703
30
0.0
11
749.135
21
854.203
31
0.0
0
LINE
5
484f
8
0-0
6
CONTINUOUS
62
  7
10
719.135
20
1044.703
30
0.0
11
719.135
21
860.703
31
0.0
0
LINE
5
4850
8
0-0
6
CONTINUOUS
62
  7
10
724.135
20
1045.786
30
0.0
11
724.135
21
859.619
31
0.0
0
LINE
5
4851
8
0-0
6
CONTINUOUS
62
  7
10
730.135
20
1047.086
30
0.0
11
730.135
21
858.319
31
0.0
0
LINE
5
4852
8
0-0
6
CONTINUOUS
62
  7
10
738.135
20
1048.819
30
0.0
11
738.135
21
856.586
31
0.0
0
LINE
5
4853
8
0-0
6
CONTINUOUS
62
  7
10
744.135
20
1050.119
30
0.0
11
744.135
21
855.286
31
0.0
0
LINE
5
4854
8
0-0
6
CONTINUOUS
62
  7
10
749.135
20
484.054
30
0.0
11
1019.135
21
484.054
31
0.0
0
LINE
5
4855
8
0-0
6
CONTINUOUS
62
  7
10
749.135
20
454.054
30
0.0
11
1004.116
21
454.054
31
0.0
0
LINE
5
4856
8
0-0
6
CONTINUOUS
62
  7
10
985.793
20
454.054
30
0.0
11
1004.116
21
454.054
31
0.0
0
LINE
5
4857
8
0-0
6
CONTINUOUS
62
  7
10
749.135
20
544.054
30
0.0
11
749.135
21
490.559
31
0.0
0
LINE
5
4858
8
0-0
6
CONTINUOUS
62
  7
10
749.135
20
544.054
30
0.0
11
1119.135
21
544.054
31
0.0
0
LINE
5
4859
8
0-0
6
CONTINUOUS
62
  7
10
1119.135
20
544.054
30
0.0
11
1147.135
21
400.054
31
0.0
0
LINE
5
485a
8
0-0
6
CONTINUOUS
62
  7
10
1004.116
20
454.054
30
0.0
11
1012.404
21
407.054
31
0.0
0
LINE
5
485b
8
0-0
6
CONTINUOUS
62
  7
10
1012.404
20
407.054
30
0.0
11
1147.135
21
400.054
31
0.0
0
LINE
5
485c
8
0-0
6
CONTINUOUS
62
  7
10
1119.135
20
544.054
30
0.0
11
1019.135
21
484.054
31
0.0
0
LINE
5
485d
8
0-0
6
CONTINUOUS
62
  7
10
1019.135
20
484.054
30
0.0
11
1032.900
21
405.989
31
0.0
0
LINE
5
485e
8
0-0
6
CONTINUOUS
62
  7
10
1350.811
20
952.703
30
0.0
11
1494.811
21
952.703
31
0.0
0
LINE
5
485f
8
0-2
6
CONTINUOUS
62
  7
10
426.108
20
1333.784
30
0.0
11
510.108
21
1333.784
31
0.0
0
LINE
5
4860
8
0-2
6
CONTINUOUS
62
  7
10
426.108
20
1143.243
30
0.0
11
426.108
21
1333.784
31
0.0
0
LINE
5
4861
8
0-2
6
CONTINUOUS
62
  7
10
510.108
20
1143.243
30
0.0
11
510.108
21
1333.784
31
0.0
0
LINE
5
4862
8
0-2
6
CONTINUOUS
62
  7
10
719.135
20
1333.784
30
0.0
11
749.135
21
1333.784
31
0.0
0
LINE
5
4863
8
0-2
6
CONTINUOUS
62
  7
10
719.135
20
1143.243
30
0.0
11
719.135
21
1333.784
31
0.0
0
LINE
5
4864
8
0-2
6
CONTINUOUS
62
  7
10
749.135
20
1143.243
30
0.0
11
749.135
21
1333.784
31
0.0
0
LINE
5
4865
8
0-2
6
CONTINUOUS
62
  7
10
749.135
20
1333.784
30
0.0
11
1119.135
21
1333.784
31
0.0
0
LINE
5
4866
8
0-2
6
CONTINUOUS
62
  7
10
1119.135
20
1143.243
30
0.0
11
1119.135
21
1333.784
31
0.0
0
LINE
5
4867
8
0-2
6
CONTINUOUS
62
  7
10
1350.811
20
1333.784
30
0.0
11
1494.811
21
1333.784
31
0.0
0
LINE
5
4868
8
0-2
6
CONTINUOUS
62
  7
10
1350.811
20
1143.243
30
0.0
11
1350.811
21
1333.784
31
0.0
0
LINE
5
4869
8
0-2
6
CONTINUOUS
62
  7
10
1494.811
20
1143.243
30
0.0
11
1494.811
21
1333.784
31
0.0
0
LINE
5
486a
8
0-2
6
CONTINUOUS
62
  7
10
749.135
20
1264.865
30
0.0
11
1019.135
21
1264.865
31
0.0
0
LINE
5
486b
8
0-2
6
CONTINUOUS
62
  7
10
749.135
20
1143.243
30
0.0
11
749.135
21
1264.865
31
0.0
0
LINE
5
486c
8
0-2
6
CONTINUOUS
62
  7
10
1019.135
20
1143.243
30
0.0
11
1019.135
21
1264.865
31
0.0
0
LINE
5
486d
8
0-2
6
CONTINUOUS
62
  7
10
1019.135
20
1264.865
30
0.0
11
1119.135
21
1264.865
31
0.0
0
LINE
5
486e
8
0-2
6
CONTINUOUS
62
  7
10
1119.135
20
1143.243
30
0.0
11
1119.135
21
1264.865
31
0.0
0
LINE
5
486f
8
0-2
6
CONTINUOUS
62
  7
10
719.135
20
251.351
30
0.0
11
749.135
21
251.351
31
0.0
0
LINE
5
4870
8
0-2
6
CONTINUOUS
62
  7
10
719.135
20
344.595
30
0.0
11
719.135
21
251.351
31
0.0
0
LINE
5
4871
8
0-2
6
CONTINUOUS
62
  7
10
749.135
20
344.595
30
0.0
11
749.135
21
251.351
31
0.0
0
LINE
5
4872
8
0-2
6
CONTINUOUS
62
  7
10
749.135
20
251.351
30
0.0
11
1004.116
21
251.351
31
0.0
0
LINE
5
4873
8
0-2
6
CONTINUOUS
62
  7
10
1004.116
20
344.595
30
0.0
11
1004.116
21
251.351
31
0.0
0
LINE
5
4874
8
0-2
6
CONTINUOUS
62
  7
10
1004.116
20
251.351
30
0.0
11
1147.135
21
251.351
31
0.0
0
LINE
5
4875
8
0-2
6
CONTINUOUS
62
  7
10
1147.135
20
344.595
30
0.0
11
1147.135
21
251.351
31
0.0
0
LINE
5
4876
8
0-2
6
CONTINUOUS
62
  7
10
597.464
20
454.054
30
0.0
11
597.464
21
544.054
31
0.0
0
LINE
5
4877
8
0-2
6
CONTINUOUS
62
  7
10
695.521
20
454.054
30
0.0
11
597.464
21
454.054
31
0.0
0
LINE
5
4878
8
0-2
6
CONTINUOUS
62
  7
10
695.521
20
544.054
30
0.0
11
597.464
21
544.054
31
0.0
0
LINE
5
4879
8
0-2
6
CONTINUOUS
62
  7
10
636.784
20
454.054
30
0.0
11
636.784
21
484.054
31
0.0
0
LINE
5
487a
8
0-2
6
CONTINUOUS
62
  7
10
695.521
20
454.054
30
0.0
11
636.784
21
454.054
31
0.0
0
LINE
5
487b
8
0-2
6
CONTINUOUS
62
  7
10
695.521
20
484.054
30
0.0
11
636.784
21
484.054
31
0.0
0
LINE
5
487c
8
0-2
6
CONTINUOUS
62
  7
10
636.784
20
484.054
30
0.0
11
636.784
21
544.054
31
0.0
0
LINE
5
487d
8
0-2
6
CONTINUOUS
62
  7
10
695.521
20
544.054
30
0.0
11
636.784
21
544.054
31
0.0
0
LINE
5
487e
8
0-2
6
CONTINUOUS
62
  7
10
636.784
20
454.054
30
0.0
11
636.784
21
407.054
31
0.0
0
LINE
5
487f
8
0-2
6
CONTINUOUS
62
  7
10
695.521
20
454.054
30
0.0
11
636.784
21
454.054
31
0.0
0
LINE
5
4880
8
0-2
6
CONTINUOUS
62
  7
10
695.521
20
407.054
30
0.0
11
636.784
21
407.054
31
0.0
0
LINE
5
4881
8
0-2
6
CONTINUOUS
62
  7
10
1268.919
20
400.054
30
0.0
11
1268.919
21
544.054
31
0.0
0
LINE
5
4882
8
0-2
6
CONTINUOUS
62
  7
10
1191.892
20
400.054
30
0.0
11
1268.919
21
400.054
31
0.0
0
LINE
5
4883
8
0-2
6
CONTINUOUS
62
  7
10
1191.892
20
544.054
30
0.0
11
1268.919
21
544.054
31
0.0
0
LINE
5
4884
8
0-0
6
CONTINUOUS
62
  7
10
1489.811
20
837.703
30
0.0
11
1494.811
21
952.703
31
0.0
0
LINE
5
4885
8
0-0
6
CONTINUOUS
62
  7
10
1494.811
20
952.703
30
0.0
11
1489.811
21
1067.703
31
0.0
0
LINE
5
4886
8
0-2
6
CONTINUOUS
62
  7
10
1645.946
20
1067.703
30
0.0
11
1645.946
21
837.703
31
0.0
0
LINE
5
4887
8
0-2
6
CONTINUOUS
62
  7
10
1556.757
20
1067.703
30
0.0
11
1645.946
21
1067.703
31
0.0
0
LINE
5
4888
8
0-2
6
CONTINUOUS
62
  7
10
1556.757
20
837.703
30
0.0
11
1645.946
21
837.703
31
0.0
0
LINE
5
4889
8
0-0
6
CONTINUOUS
62
  7
10
749.135
20
1064.203
30
0.0
11
1019.135
21
1065.703
31
0.0
0
LINE
5
488a
8
0-0
6
CONTINUOUS
62
  7
10
749.135
20
841.203
30
0.0
11
1019.135
21
839.703
31
0.0
0
LINE
5
488b
8
0-0
6
CONTINUOUS
62
  7
10
1019.135
20
1065.703
30
0.0
11
1119.135
21
952.703
31
0.0
0
LINE
5
488c
8
0-0
6
CONTINUOUS
62
  7
10
1119.135
20
952.703
30
0.0
11
1019.135
21
839.703
31
0.0
0
LINE
5
488d
8
0-0
6
CONTINUOUS
62
  7
10
1350.811
20
952.703
30
0.0
11
1410.811
21
839.703
31
0.0
0
LINE
5
488e
8
0-0
6
CONTINUOUS
62
  7
10
1380.811
20
896.203
30
0.0
11
1350.811
21
952.703
31
0.0
0
LINE
5
488f
8
0-0
6
CONTINUOUS
62
  7
10
1350.811
20
952.703
30
0.0
11
1410.811
21
1065.703
31
0.0
0
LINE
5
4890
8
0-0
6
CONTINUOUS
62
  7
10
1410.811
20
1065.703
30
0.0
11
1489.811
21
1067.703
31
0.0
0
LINE
5
4891
8
0-0
6
CONTINUOUS
62
  7
10
1410.811
20
839.703
30
0.0
11
1489.811
21
837.703
31
0.0
0
LINE
5
4892
8
0-0
6
CONTINUOUS
62
  7
10
749.146
20
843.203
30
0.0
11
1019.135
21
841.703
31
0.0
0
LINE
5
4893
8
0-0
6
CONTINUOUS
62
  7
10
749.146
20
1062.203
30
0.0
11
1019.135
21
1063.703
31
0.0
0
LINE
5
4894
8
ADD_LINE
6
HIDDEN
62
  3
10
1301.351
20
952.703
30
0.0
11
1544.595
21
952.703
31
0.0
0
ARC
5
4895
8
0-0
6
CONTINUOUS
62
  7
10
484.608
20
952.703
30
0.0
40
25.500
50
331.927917
51
388.072083
0
CIRCLE
5
4896
8
ADD_LINE
6
HIDDEN
62
  3
10
510.108
20
952.703
30
0.0
40
3.000
0
CIRCLE
5
4897
8
0-0
6
CONTINUOUS
62
  7
10
926.135
20
952.703
30
0.0
40
3.000
0
CIRCLE
5
4898
8
0-0
6
CONTINUOUS
62
  7
10
956.135
20
952.703
30
0.0
40
3.000
0
CIRCLE
5
4899
8
ADD_LINE
6
HIDDEN
62
  3
10
1004.116
20
454.054
30
0.0
40
3.000
0
CIRCLE
5
489a
8
ADD_LINE
6
HIDDEN
62
  3
10
749.135
20
952.703
30
0.0
40
3.000
0
TEXT
5
489b
100
AcDbEntity
8
0-2
62
7
100
AcDbText
10
594.964
20
943.328
30
0.0
40
9.750
41
0.800
50
90.000
1
223
100
AcDbText
0
TEXT
5
489c
100
AcDbEntity
8
0-2
62
7
100
AcDbText
10
461.858
20
1336.284
30
0.0
40
9.750
41
0.800
50
0.000
1
84
100
AcDbText
0
TEXT
5
489d
100
AcDbEntity
8
0-2
62
7
100
AcDbText
10
727.885
20
1336.284
30
0.0
40
9.750
41
0.800
50
0.000
1
30
100
AcDbText
0
TEXT
5
489e
100
AcDbEntity
8
0-2
62
7
100
AcDbText
10
924.760
20
1336.284
30
0.0
40
9.750
41
0.800
50
0.000
1
370
100
AcDbText
0
TEXT
5
489f
100
AcDbEntity
8
0-2
62
7
100
AcDbText
10
1413.436
20
1336.284
30
0.0
40
9.750
41
0.800
50
0.000
1
144
100
AcDbText
0
TEXT
5
48a0
100
AcDbEntity
8
0-2
62
7
100
AcDbText
10
874.760
20
1267.365
30
0.0
40
9.750
41
0.800
50
0.000
1
270
100
AcDbText
0
TEXT
5
48a1
100
AcDbEntity
8
0-2
62
7
100
AcDbText
10
1059.760
20
1267.365
30
0.0
40
9.750
41
0.800
50
0.000
1
100
100
AcDbText
0
TEXT
5
48a2
100
AcDbEntity
8
0-2
62
7
100
AcDbText
10
727.885
20
253.851
30
0.0
40
9.750
41
0.800
50
0.000
1
30
100
AcDbText
0
TEXT
5
48a3
100
AcDbEntity
8
0-2
62
7
100
AcDbText
10
867.251
20
253.851
30
0.0
40
9.750
41
0.800
50
0.000
1
255
100
AcDbText
0
TEXT
5
48a4
100
AcDbEntity
8
0-2
62
7
100
AcDbText
10
1066.251
20
253.851
30
0.0
40
9.750
41
0.800
50
0.000
1
143
100
AcDbText
0
TEXT
5
48a5
100
AcDbEntity
8
0-2
62
7
100
AcDbText
10
594.964
20
492.804
30
0.0
40
9.750
41
0.800
50
90.000
1
90
100
AcDbText
0
TEXT
5
48a6
100
AcDbEntity
8
0-2
62
7
100
AcDbText
10
634.284
20
462.804
30
0.0
40
9.750
41
0.800
50
90.000
1
30
100
AcDbText
0
TEXT
5
48a7
100
AcDbEntity
8
0-2
62
7
100
AcDbText
10
634.284
20
507.804
30
0.0
40
9.750
41
0.800
50
90.000
1
60
100
AcDbText
0
TEXT
5
48a8
100
AcDbEntity
8
0-2
62
7
100
AcDbText
10
634.284
20
424.304
30
0.0
40
9.750
41
0.800
50
90.000
1
47
100
AcDbText
0
TEXT
5
48a9
100
AcDbEntity
8
0-2
62
7
100
AcDbText
10
1266.419
20
462.679
30
0.0
40
9.750
41
0.800
50
90.000
1
144
100
AcDbText
0
TEXT
5
48aa
100
AcDbEntity
8
0-2
62
7
100
AcDbText
10
1643.446
20
943.328
30
0.0
40
9.750
41
0.800
50
90.000
1
230
100
AcDbText
0
POINT
5
48ab
8
0-2
62
  7
10
597.464
20
1064.203
30
0.0
0
POINT
5
48ac
8
0-2
62
  7
10
597.464
20
841.203
30
0.0
0
POINT
5
48ad
8
0-2
62
  7
10
426.108
20
1333.784
30
0.0
0
POINT
5
48ae
8
0-2
62
  7
10
510.108
20
1333.784
30
0.0
0
POINT
5
48af
8
0-2
62
  7
10
719.135
20
1333.784
30
0.0
0
POINT
5
48b0
8
0-2
62
  7
10
749.135
20
1333.784
30
0.0
0
POINT
5
48b1
8
0-2
62
  7
10
1119.135
20
1333.784
30
0.0
0
POINT
5
48b2
8
0-2
62
  7
10
1350.811
20
1333.784
30
0.0
0
POINT
5
48b3
8
0-2
62
  7
10
1494.811
20
1333.784
30
0.0
0
POINT
5
48b4
8
0-2
62
  7
10
749.135
20
1264.865
30
0.0
0
POINT
5
48b5
8
0-2
62
  7
10
1019.135
20
1264.865
30
0.0
0
POINT
5
48b6
8
0-2
62
  7
10
1119.135
20
1264.865
30
0.0
0
POINT
5
48b7
8
0-2
62
  7
10
719.135
20
251.351
30
0.0
0
POINT
5
48b8
8
0-2
62
  7
10
749.135
20
251.351
30
0.0
0
POINT
5
48b9
8
0-2
62
  7
10
1004.116
20
251.351
30
0.0
0
POINT
5
48ba
8
0-2
62
  7
10
1147.135
20
251.351
30
0.0
0
POINT
5
48bb
8
0-2
62
  7
10
597.464
20
454.054
30
0.0
0
POINT
5
48bc
8
0-2
62
  7
10
597.464
20
544.054
30
0.0
0
POINT
5
48bd
8
0-2
62
  7
10
636.784
20
454.054
30
0.0
0
POINT
5
48be
8
0-2
62
  7
10
636.784
20
484.054
30
0.0
0
POINT
5
48bf
8
0-2
62
  7
10
636.784
20
544.054
30
0.0
0
POINT
5
48c0
8
0-2
62
  7
10
636.784
20
454.054
30
0.0
0
POINT
5
48c1
8
0-2
62
  7
10
636.784
20
407.054
30
0.0
0
POINT
5
48c2
8
0-2
62
  7
10
1268.919
20
400.054
30
0.0
0
POINT
5
48c3
8
0-2
62
  7
10
1268.919
20
544.054
30
0.0
0
POINT
5
48c4
8
0-2
62
  7
10
1645.946
20
1067.703
30
0.0
0
POINT
5
48c5
8
0-2
62
  7
10
1645.946
20
837.703
30
0.0
0
ENDSEC
0
EOF
