  0
SECTION
  2
HEADER
  9
$ACADVER
  1
AC1009
  9
$INSBASE
 10
0
 20
0
 30
0
  9
$EXTMIN
 10
0
 20
0
  9
$EXTMAX
 10
2100
 20
1485
  9
$LIMMIN
 10
0
 20
0
  9
$LIMMAX
 10
2100
 20
1485
  9
$LTSCALE
 40
5
  0
ENDSEC
  0
SECTION
  2
TABLES
  0
TABLE
  2
LTYPE
 70
     9
  0
LTYPE
  2
CONTINUOUS
 70
    64
  3
実線
 72
    65
 73
     0
 40
0.0
  0
LTYPE
  2
DASHED1
 70
    64
  3
--  --  --  --  --  --  --  --  
 72
    65
 73
     2
 40
2.5
 49
1.25
 49
-1.25
  0
LTYPE
  2
DASHED2
 70
    64
  3
----    ----    ----    ----    
 72
    65
 73
     2
 40
5.0
 49
2.5
 49
-2.5
  0
LTYPE
  2
DASHED3
 70
    64
  3
------  ------  ------  ------  
 72
    65
 73
     2
 40
5.0
 49
3.75
 49
-1.25
  0
LTYPE
  2
CENTER1
 70
    64
  3
----- - ----- - ----- - ----- - 
 72
    65
 73
     4
 40
10.0
 49
6.25
 49
-1.25
 49
1.25
 49
-1.25
  0
LTYPE
  2
CENTER2
 70
    64
  3
----------  --  ----------  --  
 72
    65
 73
     4
 40
20.0
 49
12.5
 49
-2.5
 49
2.5
 49
-2.5
  0
LTYPE
  2
PHANTOM1
 70
    64
  3
--- - - --- - - --- - - --- - - 
 72
    65
 73
     6
 40
10.0
 49
3.25
 49
-1.25
 49
1.25
 49
-1.25
 49
1.25
 49
-1.25
  0
LTYPE
  2
PHANTOM2
 70
    64
  3
--------  -  -  --------  -  -  
 72
    65
 73
     6
 40
20.0
 49
10.0
 49
-2.5
 49
1.25
 49
-2.5
 49
1.25
 49
-2.5
  0
LTYPE
  2
DOT
 70
    64
  3
-   -   -   -   -   -   -   -   
 72
    65
 73
     2
 40
2.5
 49
0.625
 49
-1.875
  0
LTYPE
  2
DUMMY
 70
    64
  3
ダミー
 72
    65
 73
     0
 40
0.0
  0
LTYPE
  2
RAND1
 70
    64
  3
ランダム線1
 72
    65
 73
     4
 40
10.0
 49
1.0
 49
-2.0
 49
3.0
 49
-4.0
  0
LTYPE
  2
RAND2
 70
    64
  3
ランダム線2
 72
    65
 73
     4
 40
14.0
 49
2.0
 49
-3.0
 49
4.0
 49
-5.0
  0
LTYPE
  2
RAND3
 70
    64
  3
ランダム線3
 72
    65
 73
     4
 40
18.0
 49
3.0
 49
-4.0
 49
5.0
 49
-6.0
  0
LTYPE
  2
RAND4
 70
    64
  3
ランダム線4
 72
    65
 73
     4
 40
22.0
 49
4.0
 49
-5.0
 49
6.0
 49
-7.0
  0
LTYPE
  2
RAND5
 70
    64
  3
ランダム線5
 72
    65
 73
     4
 40
26.0
 49
5.0
 49
-6.0
 49
7.0
 49
-8.0
  0
LTYPE
  2
LONG1
 70
    64
  3
----------  --  ----------  --  
 72
    65
 73
     4
 40
40.0
 49
32.5
 49
-2.5
 49
2.5
 49
-2.5
  0
LTYPE
  2
LONG2
 70
    64
  3
--------  -  -  --------  -  -  
 72
    65
 73
     6
 40
40.0
 49
30.0
 49
-2.5
 49
1.25
 49
-2.5
 49
1.25
 49
-2.5
  0
LTYPE
  2
LONG3
 70
    64
  3
+++++++++++++++..+++++++++++++++
 72
    65
 73
     2
 40
40.0
 49
37.5
 49
-2.5
  0
LTYPE
  2
LONG4
 70
    64
  3
+++++++++++++++..+++++++++++++++
 72
    65
 73
     2
 40
80.0
 49
75.0
 49
-5.0
  0
LTYPE
  2
LONG5
 70
    64
  3
----------  --  ----------  --  
 72
    65
 73
     4
 40
60.0
 49
37.5
 49
-7.5
 49
7.5
 49
-7.5
  0
LTYPE
  2
dashed
 70
   64
  3
-------   -------------   ------
 72
   65
 73
    2
 40
7.5
 49
6
 49
-1.5
  0
LTYPE
  2
dashed_spaced
 70
   64
  3
----        --------        ----
 72
   65
 73
    2
 40
12
 49
6
 49
-6
  0
LTYPE
  2
long_dashed_dotted
 70
   64
  3
------------- --- --------------
 72
   65
 73
    4
 40
15.25
 49
12
 49
-1.5
 49
0.25
 49
-1.5
  0
LTYPE
  2
long_dashed_double-dotted
 70
   64
  3
----------- --- --- ------------
 72
   65
 73
    6
 40
17
 49
12
 49
-1.5
 49
0.25
 49
-1.5
 49
0.25
 49
-1.5
  0
LTYPE
  2
long_dashed_triplicate-dotted
 70
   64
  3
--------- --- --- --- ----------
 72
   65
 73
    8
 40
18.75
 49
12
 49
-1.5
 49
0.25
 49
-1.5
 49
0.25
 49
-1.5
 49
0.25
 49
-1.5
  0
LTYPE
  2
dotted
 70
   64
  3
   -       -       -       -    
 72
   65
 73
    2
 40
1.75
 49
0.25
 49
-1.5
  0
LTYPE
  2
chain
 70
   64
  3
-------------- -- --------------
 72
   65
 73
    4
 40
18.5
 49
12
 49
-1.5
 49
3.5
 49
-1.5
  0
LTYPE
  2
chain_double_dash
 70
   64
  3
------------ -- -- -------------
 72
   65
 73
    6
 40
23.5
 49
12
 49
-1.5
 49
3.5
 49
-1.5
 49
3.5
 49
-1.5
  0
LTYPE
  2
dashed_dotted
 70
   64
  3
-----------     -     ----------
 72
   65
 73
    4
 40
9.25
 49
6
 49
-1.5
 49
0.25
 49
-1.5
  0
LTYPE
  2
double-dashed_dotted
 70
   64
  3
------   -----------   -   -----
 72
   65
 73
    6
 40
16.75
 49
6
 49
-1.5
 49
6
 49
-1.5
 49
0.25
 49
-1.5
  0
LTYPE
  2
dashed_double-dotted
 70
   64
  3
---------    -    -    ---------
 72
   65
 73
    6
 40
11
 49
6
 49
-1.5
 49
0.25
 49
-1.5
 49
0.25
 49
-1.5
  0
LTYPE
  2
double-dashed_double-dotted
 70
   64
  3
-----   ---------   -   -   ----
 72
   65
 73
    8
 40
18.5
 49
6
 49
-1.5
 49
6
 49
-1.5
 49
0.25
 49
-1.5
 49
0.25
 49
-1.5
  0
LTYPE
  2
dashed_triplicate-dotted
 70
   64
  3
-------    -    -    -    ------
 72
   65
 73
    8
 40
12.75
 49
6
 49
-1.5
 49
0.25
 49
-1.5
 49
0.25
 49
-1.5
 49
0.25
 49
-1.5
  0
LTYPE
  2
double-dashed_triplicate-dotted
 70
   64
  3
-----  ---------  -  -  -  -----
 72
   65
 73
   10
 40
20.25
 49
6
 49
-1.5
 49
6
 49
-1.5
 49
0.25
 49
-1.5
 49
0.25
 49
-1.5
 49
0.25
 49
-1.5
  0
LTYPE
  2
undefined
 70
   64
  3
--------------------------------
 72
   65
 73
    0
 40
0
  0
ENDTAB
  0
TABLE
  2
STYLE
  5
3
100
AcDbSymbolTable
 70
     1
  0
STYLE
  5
10
100
AcDbSymbolTableRecord
100
AcDbTextStyleTableRecord
  2
STANDARD
 70
     0
 40
0.0
 41
1.0
 50
0.0
 71
     0
 42
0.2
  3
txt
  4
bigfont.shx
  0
STYLE
  5
26
100
AcDbSymbolTableRecord
100
AcDbTextStyleTableRecord
  2
TATEGAKI
 70
    68
 40
0.0
 41
1.0
 50
0.0
 71
     0
 42
1.0
  3
txt
  4
bigfont.shx
  0
ENDTAB
  0
TABLE
  2
LAYER
 70
    5
  0
LAYER
  2
_0-0_
 70
   64
 62
    7
  6
CONTINUOUS
  0
LAYER
  2
_0-1_
 70
   64
 62
    7
  6
CONTINUOUS
  0
LAYER
  2
_0-2_
 70
   64
 62
    7
  6
CONTINUOUS
  0
LAYER
  2
_0-3_
 70
   64
 62
    7
  6
CONTINUOUS
  0
LAYER
  2
ADD_LINE
 70
   64
 62
    7
  6
CONTINUOUS
  0
ENDTAB
  0
ENDSEC
  0
SECTION
  2
BLOCKS
  0
ENDSEC
  0
SECTION
  2
ENTITIES
  0
LINE
  8
_0-0_
  6
CONTINUOUS
 62
    7
 10
885.00706440693637
 20
809.78436856656469
 11
890.00708090292449
 21
800.78436361776824
  0
LINE
  8
_0-0_
  6
CONTINUOUS
 62
    7
 10
890.00708090292449
 20
800.78436361776824
 11
1130.0070685309333
 21
800.78436361776824
  0
LINE
  8
_0-0_
  6
CONTINUOUS
 62
    7
 10
885.00706440693637
 20
809.78436856656469
 11
917.00709574931375
 21
809.78436856656469
  0
LINE
  8
_0-0_
  6
CONTINUOUS
 62
    7
 10
937.00709987331084
 20
806.78434629698063
 11
938.59201379724459
 21
806.78434629698063
  0
LINE
  8
_0-0_
  6
CONTINUOUS
 62
    7
 10
938.59201379724459
 20
806.78434629698063
 11
1130.0070685309333
 21
806.78434629698063
  0
LINE
  8
_0-2_
  6
CONTINUOUS
 62
    7
 10
1349.2730218010979
 20
807.78437434016053
 11
1350.8912782411317
 21
803.78432402739668
  0
LINE
  8
_0-2_
  6
CONTINUOUS
 62
    7
 10
1350.8912782411317
 20
803.78432402739668
 11
1379.2729970571158
 21
800.78436361776824
  0
LINE
  8
_0-2_
  6
CONTINUOUS
 62
    7
 10
1364.2729475691513
 20
815.78435124577709
 11
1379.2729970571158
 21
808.7843405233848
  0
LINE
  8
_0-2_
  6
CONTINUOUS
 62
    7
 10
1379.2729970571158
 20
1139.7844056825379
 11
1378.4642399968329
 21
1137.7843495961783
  0
LINE
  8
_0-2_
  6
CONTINUOUS
 62
    7
 10
1364.2729475691513
 20
1129.7843726905617
 11
1378.4642399968329
 21
1137.7843495961783
  0
LINE
  8
_0-2_
  6
CONTINUOUS
 62
    7
 10
1379.2729970571158
 20
1147.7843825881546
 11
1379.2729970571158
 21
1139.7844056825379
  0
LINE
  8
_0-2_
  6
CONTINUOUS
 62
    7
 10
1379.2729970571158
 20
808.7843405233848
 11
1379.2729970571158
 21
800.78436361776824
  0
LINE
  8
_0-2_
  6
CONTINUOUS
 62
    7
 10
1364.2729475691513
 20
1129.7843726905617
 11
1364.2729475691513
 21
815.78435124577709
  0
LINE
  8
_0-2_
  6
CONTINUOUS
 62
    7
 10
1345.2730333482898
 20
1109.7844304265204
 11
1345.2730333482898
 21
1105.7843182538008
  0
LINE
  8
_0-2_
  6
CONTINUOUS
 62
    7
 10
1345.2730333482898
 20
1105.7843182538008
 11
1349.2730218010979
 21
1105.7843182538008
  0
LINE
  8
_0-2_
  6
CONTINUOUS
 62
    7
 10
1345.2730333482898
 20
1109.7844304265204
 11
1349.2730218010979
 21
1109.7844304265204
  0
LINE
  8
_0-2_
  6
CONTINUOUS
 62
    7
 10
1349.2730218010979
 20
1105.7843182538008
 11
1349.2730218010979
 21
807.78437434016053
  0
LINE
  8
_0-2_
  6
CONTINUOUS
 62
    7
 10
1345.2730333482898
 20
1147.7843825881546
 11
1379.2729970571158
 21
1147.7843825881546
  0
LINE
  8
_0-2_
  6
CONTINUOUS
 62
    7
 10
1360.2729591163429
 20
1147.7843825881546
 11
1360.2729591163429
 21
1136.9091549435179
  0
LINE
  8
_0-2_
  6
CONTINUOUS
 62
    7
 10
1345.2730333482898
 20
1133.78436114337
 11
1360.2729591163429
 21
1136.9091549435179
  0
LINE
  8
_0-2_
  6
CONTINUOUS
 62
    7
 10
1345.2730333482898
 20
1126.7844122809333
 11
1349.2730218010979
 21
1125.3843977644638
  0
LINE
  8
_0-2_
  6
CONTINUOUS
 62
    7
 10
1345.2730333482898
 20
1147.7843825881546
 11
1345.2730333482898
 21
1126.7844122809333
  0
LINE
  8
_0-2_
  6
CONTINUOUS
 62
    7
 10
1349.2730218010979
 20
1125.3843977644638
 11
1349.2730218010979
 21
1109.7844304265204
  0
LINE
  8
_0-0_
  6
CONTINUOUS
 62
    7
 10
1085.007043786951
 20
1147.7843825881546
 11
1085.007043786951
 21
1132.7844568201015
  0
LINE
  8
_0-0_
  6
CONTINUOUS
 62
    7
 10
910.00708502692146
 20
1147.7843825881546
 11
900.62744553024709
 21
1111.9930782833617
  0
LINE
  8
_0-0_
  6
CONTINUOUS
 62
    7
 10
910.00708502692146
 20
1147.7843825881546
 11
1085.007043786951
 21
1147.7843825881546
  0
LINE
  8
_0-0_
  6
CONTINUOUS
 62
    7
 10
900.62744553024709
 20
1111.9930782833617
 11
900.62744553024709
 21
1061.9930370433913
  0
LINE
  8
_0-0_
  6
CONTINUOUS
 62
    7
 10
900.62744553024709
 20
1061.9930370433913
 11
885.00706440693637
 21
809.78436856656469
  0
LINE
  8
_0-0_
  6
CONTINUOUS
 62
    7
 10
1091.0631334459461
 20
1132.7844568201015
 11
1130.0070685309333
 21
1132.7844568201015
  0
LINE
  8
_0-0_
  6
CONTINUOUS
 62
    7
 10
1077.0070668813346
 20
1134.7845129064613
 11
1077.0070668813346
 21
1139.7844056825379
  0
LINE
  8
_0-0_
  6
CONTINUOUS
 62
    7
 10
1087.0070998733108
 20
1124.784479914485
 11
1130.0070685309333
 21
1124.784479914485
  0
LINE
  8
_0-0_
  6
CONTINUOUS
 62
    7
 10
1130.0070685309333
 20
1132.7844568201015
 11
1130.0070685309333
 21
1099.981112093539
  0
LINE
  8
_0-0_
  6
CONTINUOUS
 62
    7
 10
1130.0070685309333
 20
1099.981112093539
 11
1130.0070685309333
 21
800.78436361776824
  0
LINE
  8
_0-0_
  6
CONTINUOUS
 62
    7
 10
1123.0071196684967
 20
1124.784479914485
 11
1123.0071196684967
 21
1111.78448651288
  0
LINE
  8
_0-0_
  6
CONTINUOUS
 62
    7
 10
1130.0070685309333
 20
1106.7844700168919
 11
1014.1099053460199
 21
1106.7844700168919
  0
LINE
  8
_0-0_
  6
CONTINUOUS
 62
    7
 10
1123.0071196684967
 20
1111.78448651288
 11
1014.1099053460199
 21
1111.78448651288
  0
LINE
  8
_0-0_
  6
CONTINUOUS
 62
    7
 10
907.91058926968969
 20
1139.7844056825379
 11
1077.0070668813346
 21
1139.7844056825379
  0
LINE
  8
_0-0_
  6
CONTINUOUS
 62
    7
 10
991.90440822292021
 20
1106.7844700168919
 11
900.62744553024709
 21
1106.7844700168919
  0
LINE
  8
ADD_LINE
  6
DOT
 62
    4
 10
906.12023843301313
 20
1109.284478264886
 11
1141.0588444890204
 21
1109.284478264886
  0
LINE
  8
_0-0_
  6
CONTINUOUS
 62
    7
 10
991.90440822292021
 20
1111.78448651288
 11
906.77539722339532
 21
1111.78448651288
  0
LINE
  8
_0-0_
  6
CONTINUOUS
 62
    7
 10
914.11316330368459
 20
1139.7844056825379
 11
906.77539722339532
 21
1111.78448651288
  0
LINE
  8
ADD_LINE
  6
DOT
 62
    4
 10
1066.0071295660896
 20
1146.81206780511
 11
1066.0071295660896
 21
1096.7354439400337
  0
LINE
  8
ADD_LINE
  6
DOT
 62
    4
 10
976.00714193808074
 20
1146.81206780511
 11
976.00714193808074
 21
1096.7354439400337
  0
LINE
  8
ADD_LINE
  6
DOT
 62
    4
 10
910.00708502692146
 20
1122.784423828125
 11
1085.007043786951
 21
1122.784423828125
  0
LINE
  8
_0-0_
  6
CONTINUOUS
 62
    7
 10
1130.0070685309333
 20
1099.981112093539
 11
1130.0070685309333
 21
800.78436361776824
  0
LINE
  8
_0-0_
  6
CONTINUOUS
 62
    7
 10
911.62744470544772
 20
1061.9930370433913
 11
917.00709574931375
 21
809.78436856656469
  0
LINE
  8
_0-0_
  6
CONTINUOUS
 62
    7
 10
911.62744470544772
 20
1106.7844700168919
 11
911.62744470544772
 21
1061.9930370433913
  0
LINE
  8
_0-0_
  6
CONTINUOUS
 62
    7
 10
930.00715101087417
 20
1106.7844700168919
 11
937.00709987331084
 21
806.78434629698063
  0
LINE
  8
_0-0_
  6
CONTINUOUS
 62
    7
 10
921.00714606207771
 20
806.78434629698063
 11
914.59993929476354
 21
1106.7844700168919
  0
LINE
  8
_0-2_
  6
CONTINUOUS
 62
    7
 10
1373.2729525179477
 20
895.78436774176521
 11
1373.2729525179477
 21
847.78438258815459
  0
LINE
  8
_0-2_
  6
CONTINUOUS
 62
    7
 10
1373.2729525179477
 20
1008.7844436233108
 11
1373.2729525179477
 21
955.78438011375636
  0
LINE
  8
_0-2_
  6
CONTINUOUS
 62
    7
 10
1364.2729475691513
 20
1102.7843578441725
 11
1373.2729525179477
 21
1106.7843462969806
  0
LINE
  8
_0-2_
  6
CONTINUOUS
 62
    7
 10
1364.2729475691513
 20
1010.7843759897594
 11
1373.2729525179477
 21
1008.7844436233108
  0
LINE
  8
_0-2_
  6
CONTINUOUS
 62
    7
 10
1373.2729525179477
 20
955.78438011375636
 11
1364.2729475691513
 21
953.78438588735219
  0
LINE
  8
_0-2_
  6
CONTINUOUS
 62
    7
 10
1364.2729475691513
 20
897.78436196816938
 11
1373.2729525179477
 21
895.78436774176521
  0
LINE
  8
_0-2_
  6
CONTINUOUS
 62
    7
 10
1373.2729525179477
 20
847.78438258815459
 11
1364.2729475691513
 21
845.78438836175053
  0
LINE
  8
_0-2_
  6
CONTINUOUS
 62
    7
 10
1373.2729525179477
 20
1134.8578788138725
 11
1373.2729525179477
 21
1106.7843462969806
  0
LINE
  8
_0-2_
  6
CONTINUOUS
 62
    7
 10
617.19997509105792
 20
1147.7843825881546
 11
552.19994622307854
 21
1147.7843825881546
  0
LINE
  8
_0-2_
  6
CONTINUOUS
 62
    7
 10
552.19994622307854
 20
1147.7843825881546
 11
517.19995447107272
 21
800.78436361776824
  0
LINE
  8
_0-2_
  6
CONTINUOUS
 62
    7
 10
617.19997509105792
 20
809.78436856656469
 11
517.19995447107272
 21
809.78436856656469
  0
LINE
  8
_0-2_
  6
CONTINUOUS
 62
    7
 10
609.19993632548562
 20
800.78436361776824
 11
517.19995447107272
 21
800.78436361776824
  0
LINE
  8
_0-2_
  6
CONTINUOUS
 62
    7
 10
609.19993632548562
 20
800.78436361776824
 11
617.19997509105792
 21
809.78436856656469
  0
LINE
  8
_0-2_
  6
CONTINUOUS
 62
    7
 10
617.19997509105792
 20
1147.7843825881546
 11
617.19997509105792
 21
809.78436856656469
  0
LINE
  8
_0-3_
  6
CONTINUOUS
 62
    7
 10
552.19994622307854
 20
1308.5565515466637
 11
552.19994622307854
 21
1200.2370473500846
  0
LINE
  8
_0-3_
  6
CONTINUOUS
 62
    7
 10
617.19997509105792
 20
1308.5565515466637
 11
617.19997509105792
 21
1200.2370473500846
  0
LINE
  8
_0-3_
  6
CONTINUOUS
 62
    7
 10
552.19994622307854
 20
1308.5565515466637
 11
617.19997509105792
 21
1308.5565515466637
  0
LINE
  8
_0-3_
  6
CONTINUOUS
 62
    7
 10
910.00708502692146
 20
1308.5565515466637
 11
910.00708502692146
 21
1200.2370473500846
  0
LINE
  8
_0-3_
  6
CONTINUOUS
 62
    7
 10
1130.0070685309333
 20
1308.5565515466637
 11
1130.0070685309333
 21
1200.2370473500846
  0
LINE
  8
_0-3_
  6
CONTINUOUS
 62
    7
 10
910.00708502692146
 20
1308.5565515466637
 11
1130.0070685309333
 21
1308.5565515466637
  0
LINE
  8
_0-3_
  6
CONTINUOUS
 62
    7
 10
1345.2730333482898
 20
1308.5565515466637
 11
1345.2730333482898
 21
1200.2370473500846
  0
LINE
  8
_0-3_
  6
CONTINUOUS
 62
    7
 10
1379.2729970571158
 20
1308.5565515466637
 11
1379.2729970571158
 21
1200.2370473500846
  0
LINE
  8
_0-3_
  6
CONTINUOUS
 62
    7
 10
1345.2730333482898
 20
1308.5565515466637
 11
1379.2729970571158
 21
1308.5565515466637
  0
LINE
  8
_0-3_
  6
CONTINUOUS
 62
    7
 10
517.19995447107272
 20
669.122314453125
 11
517.19995447107272
 21
751.2354670344173
  0
LINE
  8
_0-3_
  6
CONTINUOUS
 62
    7
 10
617.19997509105792
 20
669.122314453125
 11
617.19997509105792
 21
751.2354670344173
  0
LINE
  8
_0-3_
  6
CONTINUOUS
 62
    7
 10
517.19995447107272
 20
669.122314453125
 11
617.19997509105792
 21
669.122314453125
  0
LINE
  8
_0-3_
  6
CONTINUOUS
 62
    7
 10
885.00706440693637
 20
669.122314453125
 11
885.00706440693637
 21
751.2354670344173
  0
LINE
  8
_0-3_
  6
CONTINUOUS
 62
    7
 10
1130.0070685309333
 20
669.122314453125
 11
1130.0070685309333
 21
751.2354670344173
  0
LINE
  8
_0-3_
  6
CONTINUOUS
 62
    7
 10
885.00706440693637
 20
669.122314453125
 11
1130.0070685309333
 21
669.122314453125
  0
LINE
  8
_0-1_
  6
CONTINUOUS
 62
    7
 10
1130.0070685309333
 20
559.41801328916813
 11
1130.0070685309333
 21
529.41797617319469
  0
LINE
  8
_0-1_
  6
CONTINUOUS
 62
    7
 10
924.00710647170615
 20
529.41797617319469
 11
1130.0070685309333
 21
529.41797617319469
  0
LINE
  8
_0-1_
  6
CONTINUOUS
 62
    7
 10
919.00715183567354
 20
532.41799844277875
 11
924.00710647170615
 21
529.41797617319469
  0
LINE
  8
_0-1_
  6
CONTINUOUS
 62
    7
 10
903.00707430452917
 20
532.41799844277875
 11
919.00715183567354
 21
532.41799844277875
  0
LINE
  8
_0-1_
  6
CONTINUOUS
 62
    7
 10
885.00706440693637
 20
464.41797823519323
 11
890.00701904296875
 21
459.41796173920511
  0
LINE
  8
_0-1_
  6
CONTINUOUS
 62
    7
 10
890.00701904296875
 20
553.41803060995562
 11
890.00701904296875
 21
459.41796173920511
  0
LINE
  8
_0-1_
  6
CONTINUOUS
 62
    7
 10
890.00701904296875
 20
553.41803060995562
 11
1130.0070685309333
 21
553.41803060995562
  0
LINE
  8
_0-1_
  6
CONTINUOUS
 62
    7
 10
885.00706440693637
 20
555.41802483635979
 11
887.00705863334042
 21
559.41801328916813
  0
LINE
  8
_0-1_
  6
CONTINUOUS
 62
    7
 10
885.00706440693637
 20
555.41802483635979
 11
885.00706440693637
 21
464.41797823519323
  0
LINE
  8
_0-1_
  6
CONTINUOUS
 62
    7
 10
887.00705863334042
 20
559.41801328916813
 11
917.00703388935824
 21
559.41801328916813
  0
LINE
  8
_0-1_
  6
CONTINUOUS
 62
    7
 10
938.59201379724459
 20
559.41801328916813
 11
1130.0070685309333
 21
559.41801328916813
  0
LINE
  8
_0-1_
  6
CONTINUOUS
 62
    7
 10
902.00704626134939
 20
459.41796173920511
 11
890.00701904296875
 21
459.41796173920511
  0
LINE
  8
_0-1_
  6
CONTINUOUS
 62
    7
 10
903.00707430452917
 20
460.41798978238495
 11
903.00707430452917
 21
532.41799844277875
  0
LINE
  8
_0-1_
  6
CONTINUOUS
 62
    7
 10
902.00704626134939
 20
459.41796173920511
 11
903.00707430452917
 21
460.41798978238495
  0
LINE
  8
_0-2_
  6
CONTINUOUS
 62
    7
 10
1130.0070685309333
 20
310.02143653663433
 11
1130.0070685309333
 21
298.02144024823167
  0
LINE
  8
_0-2_
  6
CONTINUOUS
 62
    7
 10
1130.0070685309333
 20
310.02143653663433
 11
1130.0070685309333
 21
298.02144024823167
  0
LINE
  8
_0-2_
  6
CONTINUOUS
 62
    7
 10
1119.0071312156883
 20
299.02143736143375
 11
1120.0071592588683
 21
298.02144024823167
  0
LINE
  8
_0-2_
  6
CONTINUOUS
 62
    7
 10
1120.0071592588683
 20
298.02144024823167
 11
1130.0070685309333
 21
298.02144024823167
  0
LINE
  8
_0-2_
  6
CONTINUOUS
 62
    7
 10
1090.0070602829392
 20
294.02145179542339
 11
1092.0296333931587
 21
299.02143736143375
  0
LINE
  8
_0-2_
  6
CONTINUOUS
 62
    7
 10
1092.0296333931587
 20
299.02143736143375
 11
1119.0071312156883
 21
299.02143736143375
  0
LINE
  8
_0-2_
  6
CONTINUOUS
 62
    7
 10
905.00713039088896
 20
294.02145179542339
 11
905.00713039088896
 21
225.02144993962474
  0
LINE
  8
_0-2_
  6
CONTINUOUS
 62
    7
 10
893.00710317250844
 20
225.02144993962474
 11
905.00713039088896
 21
225.02144993962474
  0
LINE
  8
_0-2_
  6
CONTINUOUS
 62
    7
 10
890.00708090292449
 20
228.02147220920872
 11
890.00708090292449
 21
310.02143653663433
  0
LINE
  8
_0-2_
  6
CONTINUOUS
 62
    7
 10
893.00710317250844
 20
225.02144993962474
 11
890.00708090292449
 21
228.02147220920872
  0
LINE
  8
_0-2_
  6
CONTINUOUS
 62
    7
 10
974.00708585172094
 20
294.02145179542339
 11
905.00713039088896
 21
294.02145179542339
  0
LINE
  8
_0-2_
  6
CONTINUOUS
 62
    7
 10
1090.0070602829392
 20
294.02145179542339
 11
1067.0071576092696
 21
294.02145179542339
  0
LINE
  8
_0-2_
  6
CONTINUOUS
 62
    7
 10
1060.0070850269215
 20
294.02145179542339
 11
981.00709657411335
 21
294.02145179542339
  0
LINE
  8
_0-2_
  6
CONTINUOUS
 62
    7
 10
890.00708090292449
 20
310.02143653663433
 11
914.97375900680959
 21
310.02143653663433
  0
LINE
  8
_0-2_
  6
CONTINUOUS
 62
    7
 10
936.55873891469594
 20
310.02143653663433
 11
1130.0070685309333
 21
310.02143653663433
  0
LINE
  8
_0-3_
  6
CONTINUOUS
 62
    7
 10
890.00708090292449
 20
132.76621844317461
 11
890.00708090292449
 21
199.15557552028346
  0
LINE
  8
_0-3_
  6
CONTINUOUS
 62
    7
 10
1130.0070685309333
 20
132.76621844317461
 11
1130.0070685309333
 21
199.15557552028346
  0
LINE
  8
_0-3_
  6
CONTINUOUS
 62
    7
 10
890.00708090292449
 20
132.76621844317461
 11
1130.0070685309333
 21
132.76621844317461
  0
LINE
  8
_0-3_
  6
CONTINUOUS
 62
    7
 10
349.41762975744297
 20
1147.7843825881546
 11
475.20799379091011
 21
1147.7843825881546
  0
LINE
  8
_0-3_
  6
CONTINUOUS
 62
    7
 10
349.41762975744297
 20
800.78436361776824
 11
475.20799379091011
 21
800.78436361776824
  0
LINE
  8
_0-3_
  6
CONTINUOUS
 62
    7
 10
759.98333080394855
 20
310.02143653663433
 11
849.08486443596928
 21
310.02143653663433
  0
LINE
  8
_0-3_
  6
CONTINUOUS
 62
    7
 10
759.98333080394855
 20
225.02144993962474
 11
849.08486443596928
 21
225.02144993962474
  0
LINE
  8
_0-3_
  6
CONTINUOUS
 62
    7
 10
759.98333080394855
 20
310.02143653663433
 11
759.98333080394855
 21
225.02144993962474
  0
LINE
  8
_0-3_
  6
CONTINUOUS
 62
    7
 10
1570.6323159707561
 20
1147.7843825881546
 11
1451.8302711280617
 21
1147.7843825881546
  0
LINE
  8
_0-3_
  6
CONTINUOUS
 62
    7
 10
1570.6323159707561
 20
800.78436361776824
 11
1451.8302711280617
 21
800.78436361776824
  0
LINE
  8
_0-3_
  6
CONTINUOUS
 62
    7
 10
1570.6323159707561
 20
1147.7843825881546
 11
1570.6323159707561
 21
800.78436361776824
  0
LINE
  8
_0-3_
  6
CONTINUOUS
 62
    7
 10
349.41762975744297
 20
1147.7843825881546
 11
349.41762975744297
 21
800.78436361776824
  0
ARC
  8
_0-0_
  6
CONTINUOUS
 62
    7
 10
929.00712296769427
 20
817.68369932432438
 40
13.520171835615828
 50
233.72164916992187
 51
306.27833557128906
  0
ARC
  8
_0-0_
  6
CONTINUOUS
 62
    7
 10
929.62120674751895
 20
822.43658529745574
 40
17.866046364242965
 50
225.08642578124997
 51
241.17414855957031
  0
ARC
  8
_0-0_
  6
CONTINUOUS
 62
    7
 10
1088.0350886164485
 20
1133.3383508630702
 40
3.0783181254928178
 50
190.36613464355472
 51
349.63385009765625
  0
ARC
  8
_0-0_
  6
CONTINUOUS
 62
    7
 10
1087.0070998733108
 20
1134.7845129064613
 40
10.000000128874909
 50
180
 51
270
  0
ARC
  8
_0-0_
  6
CONTINUOUS
 62
    7
 10
1014.5446571143898
 20
1109.284478264886
 40
2.5375275193033993
 50
99.866043090820313
 51
260.13394165039062
  0
ARC
  8
_0-0_
  6
CONTINUOUS
 62
    7
 10
991.4696564545502
 20
1109.284478264886
 40
2.5375275193033993
 50
279.86604309082031
 51
80.133941650390653
  0
CIRCLE
  8
_0-0_
  6
CONTINUOUS
 62
    7
 10
1066.0071295660896
 20
1122.784423828125
 40
7.5000000966561808
  0
CIRCLE
  8
_0-0_
  6
CONTINUOUS
 62
    7
 10
1066.0071295660896
 20
1122.784423828125
 40
2.0000000257749817
  0
CIRCLE
  8
_0-0_
  6
CONTINUOUS
 62
    7
 10
976.00714193808074
 20
1122.784423828125
 40
7.5000000966561808
  0
CIRCLE
  8
_0-0_
  6
CONTINUOUS
 62
    7
 10
976.00714193808074
 20
1122.784423828125
 40
2.0000000257749817
  0
ARC
  8
_0-1_
  6
CONTINUOUS
 62
    7
 10
927.79949291332355
 20
567.14401245117187
 40
13.272849933521169
 50
215.59771728515625
 51
324.40225219726562
  0
ARC
  8
_0-1_
  6
CONTINUOUS
 62
    7
 10
925.76627989073063
 20
317.74743569863813
 40
13.272849933521169
 50
215.59771728515625
 51
324.40225219726562
  0
TEXT
  8
_0-3_
 62
    7
 10
578.44996065706823
 20
1311.0565597946581
 40
12.5
 41
1
 50
0
  1
65
  0
TEXT
  8
_0-3_
 62
    7
 10
1010.6320767789275
 20
1311.0565597946581
 40
12.5
 41
1
 50
0
  1
220
  0
TEXT
  8
_0-3_
 62
    7
 10
1356.0230152027025
 20
1311.0565597946581
 40
12.5
 41
1
 50
0
  1
34
  0
TEXT
  8
_0-3_
 62
    7
 10
557.82493385108739
 20
671.62232270111917
 40
12.5
 41
1
 50
0
  1
100
  0
TEXT
  8
_0-3_
 62
    7
 10
998.13209739891261
 20
671.62232270111917
 40
12.5
 41
1
 50
0
  1
245
  0
TEXT
  8
_0-3_
 62
    7
 10
1000.632043786951
 20
135.26622669116875
 40
12.5
 41
1
 50
0
  1
240
  0
TEXT
  8
_0-3_
 62
    7
 10
757.48338441591
 20
261.27145097062396
 40
12.5
 41
1
 50
90
  1
85
  0
TEXT
  8
_0-3_
 62
    7
 10
1568.1323077227621
 20
964.90934217298354
 40
12.5
 41
1
 50
90
  1
350
  0
TEXT
  8
_0-3_
 62
    7
 10
346.91765243942683
 20
964.90934217298354
 40
12.5
 41
1
 50
90
  1
350
  0
POINT
  8
_0-3_
 62
    7
 10
552.19994622307854
 20
1308.5565515466637
  0
POINT
  8
_0-3_
 62
    7
 10
617.19997509105792
 20
1308.5565515466637
  0
POINT
  8
_0-3_
 62
    7
 10
910.00708502692146
 20
1308.5565515466637
  0
POINT
  8
_0-3_
 62
    7
 10
1130.0070685309333
 20
1308.5565515466637
  0
POINT
  8
_0-3_
 62
    7
 10
1345.2730333482898
 20
1308.5565515466637
  0
POINT
  8
_0-3_
 62
    7
 10
1379.2729970571158
 20
1308.5565515466637
  0
POINT
  8
_0-3_
 62
    7
 10
517.19995447107272
 20
669.122314453125
  0
POINT
  8
_0-3_
 62
    7
 10
617.19997509105792
 20
669.122314453125
  0
POINT
  8
_0-3_
 62
    7
 10
885.00706440693637
 20
669.122314453125
  0
POINT
  8
_0-3_
 62
    7
 10
1130.0070685309333
 20
669.122314453125
  0
POINT
  8
_0-3_
 62
    7
 10
890.00708090292449
 20
132.76621844317461
  0
POINT
  8
_0-3_
 62
    7
 10
1130.0070685309333
 20
132.76621844317461
  0
POINT
  8
_0-3_
 62
    7
 10
349.41762975744297
 20
1147.7843825881546
  0
POINT
  8
_0-3_
 62
    7
 10
349.41762975744297
 20
800.78436361776824
  0
POINT
  8
_0-3_
 62
    7
 10
759.98333080394855
 20
310.02143653663433
  0
POINT
  8
_0-3_
 62
    7
 10
759.98333080394855
 20
225.02144993962474
  0
POINT
  8
_0-3_
 62
    7
 10
1570.6323159707561
 20
1147.7843825881546
  0
POINT
  8
_0-3_
 62
    7
 10
1570.6323159707561
 20
800.78436361776824
  0
LINE
  8
_0-2_
  6
CONTINUOUS
 62
    7
 10
1066.0071295660896
 20
283.02144684662693
 11
1061.0071130701015
 21
283.02144684662693
  0
LINE
  8
_0-2_
  6
CONTINUOUS
 62
    7
 10
980.00713039088896
 20
283.02144684662693
 11
975.00711389490084
 21
283.02144684662693
  0
LINE
  8
_0-2_
  6
CONTINUOUS
 62
    7
 10
974.00708585172094
 20
294.02145179542339
 11
975.00711389490084
 21
283.02144684662693
  0
LINE
  8
_0-2_
  6
CONTINUOUS
 62
    7
 10
980.00713039088896
 20
283.02144684662693
 11
981.00709657411335
 21
294.02145179542339
  0
LINE
  8
_0-2_
  6
CONTINUOUS
 62
    7
 10
1060.0070850269215
 20
294.02145179542339
 11
1061.0071130701015
 21
283.02144684662693
  0
LINE
  8
_0-2_
  6
CONTINUOUS
 62
    7
 10
1066.0071295660896
 20
283.02144684662693
 11
1067.0071576092696
 21
294.02145179542339
  0
ENDSEC
  0
EOF
