  0
SECTION
  2
HEADER
  9
$ACADVER
  1
AC1009
  9
$INSBASE
 10
0
 20
0
 30
0
  9
$EXTMIN
 10
0
 20
0
  9
$EXTMAX
 10
2100
 20
1485
  9
$LIMMIN
 10
0
 20
0
  9
$LIMMAX
 10
2100
 20
1485
  9
$LTSCALE
 40
5
  0
ENDSEC
  0
SECTION
  2
TABLES
  0
TABLE
  2
LTYPE
 70
     9
  0
LTYPE
  2
CONTINUOUS
 70
    64
  3
実線
 72
    65
 73
     0
 40
0.0
  0
LTYPE
  2
DASHED1
 70
    64
  3
--  --  --  --  --  --  --  --  
 72
    65
 73
     2
 40
2.5
 49
1.25
 49
-1.25
  0
LTYPE
  2
DASHED2
 70
    64
  3
----    ----    ----    ----    
 72
    65
 73
     2
 40
5.0
 49
2.5
 49
-2.5
  0
LTYPE
  2
DASHED3
 70
    64
  3
------  ------  ------  ------  
 72
    65
 73
     2
 40
5.0
 49
3.75
 49
-1.25
  0
LTYPE
  2
CENTER1
 70
    64
  3
----- - ----- - ----- - ----- - 
 72
    65
 73
     4
 40
10.0
 49
6.25
 49
-1.25
 49
1.25
 49
-1.25
  0
LTYPE
  2
CENTER2
 70
    64
  3
----------  --  ----------  --  
 72
    65
 73
     4
 40
20.0
 49
12.5
 49
-2.5
 49
2.5
 49
-2.5
  0
LTYPE
  2
PHANTOM1
 70
    64
  3
--- - - --- - - --- - - --- - - 
 72
    65
 73
     6
 40
10.0
 49
3.25
 49
-1.25
 49
1.25
 49
-1.25
 49
1.25
 49
-1.25
  0
LTYPE
  2
PHANTOM2
 70
    64
  3
--------  -  -  --------  -  -  
 72
    65
 73
     6
 40
20.0
 49
10.0
 49
-2.5
 49
1.25
 49
-2.5
 49
1.25
 49
-2.5
  0
LTYPE
  2
DOT
 70
    64
  3
-   -   -   -   -   -   -   -   
 72
    65
 73
     2
 40
2.5
 49
0.625
 49
-1.875
  0
LTYPE
  2
DUMMY
 70
    64
  3
ダミー
 72
    65
 73
     0
 40
0.0
  0
LTYPE
  2
RAND1
 70
    64
  3
ランダム線1
 72
    65
 73
     4
 40
10.0
 49
1.0
 49
-2.0
 49
3.0
 49
-4.0
  0
LTYPE
  2
RAND2
 70
    64
  3
ランダム線2
 72
    65
 73
     4
 40
14.0
 49
2.0
 49
-3.0
 49
4.0
 49
-5.0
  0
LTYPE
  2
RAND3
 70
    64
  3
ランダム線3
 72
    65
 73
     4
 40
18.0
 49
3.0
 49
-4.0
 49
5.0
 49
-6.0
  0
LTYPE
  2
RAND4
 70
    64
  3
ランダム線4
 72
    65
 73
     4
 40
22.0
 49
4.0
 49
-5.0
 49
6.0
 49
-7.0
  0
LTYPE
  2
RAND5
 70
    64
  3
ランダム線5
 72
    65
 73
     4
 40
26.0
 49
5.0
 49
-6.0
 49
7.0
 49
-8.0
  0
LTYPE
  2
LONG1
 70
    64
  3
----------  --  ----------  --  
 72
    65
 73
     4
 40
40.0
 49
32.5
 49
-2.5
 49
2.5
 49
-2.5
  0
LTYPE
  2
LONG2
 70
    64
  3
--------  -  -  --------  -  -  
 72
    65
 73
     6
 40
40.0
 49
30.0
 49
-2.5
 49
1.25
 49
-2.5
 49
1.25
 49
-2.5
  0
LTYPE
  2
LONG3
 70
    64
  3
+++++++++++++++..+++++++++++++++
 72
    65
 73
     2
 40
40.0
 49
37.5
 49
-2.5
  0
LTYPE
  2
LONG4
 70
    64
  3
+++++++++++++++..+++++++++++++++
 72
    65
 73
     2
 40
80.0
 49
75.0
 49
-5.0
  0
LTYPE
  2
LONG5
 70
    64
  3
----------  --  ----------  --  
 72
    65
 73
     4
 40
60.0
 49
37.5
 49
-7.5
 49
7.5
 49
-7.5
  0
LTYPE
  2
dashed
 70
   64
  3
-------   -------------   ------
 72
   65
 73
    2
 40
7.5
 49
6
 49
-1.5
  0
LTYPE
  2
dashed_spaced
 70
   64
  3
----        --------        ----
 72
   65
 73
    2
 40
12
 49
6
 49
-6
  0
LTYPE
  2
long_dashed_dotted
 70
   64
  3
------------- --- --------------
 72
   65
 73
    4
 40
15.25
 49
12
 49
-1.5
 49
0.25
 49
-1.5
  0
LTYPE
  2
long_dashed_double-dotted
 70
   64
  3
----------- --- --- ------------
 72
   65
 73
    6
 40
17
 49
12
 49
-1.5
 49
0.25
 49
-1.5
 49
0.25
 49
-1.5
  0
LTYPE
  2
long_dashed_triplicate-dotted
 70
   64
  3
--------- --- --- --- ----------
 72
   65
 73
    8
 40
18.75
 49
12
 49
-1.5
 49
0.25
 49
-1.5
 49
0.25
 49
-1.5
 49
0.25
 49
-1.5
  0
LTYPE
  2
dotted
 70
   64
  3
   -       -       -       -    
 72
   65
 73
    2
 40
1.75
 49
0.25
 49
-1.5
  0
LTYPE
  2
chain
 70
   64
  3
-------------- -- --------------
 72
   65
 73
    4
 40
18.5
 49
12
 49
-1.5
 49
3.5
 49
-1.5
  0
LTYPE
  2
chain_double_dash
 70
   64
  3
------------ -- -- -------------
 72
   65
 73
    6
 40
23.5
 49
12
 49
-1.5
 49
3.5
 49
-1.5
 49
3.5
 49
-1.5
  0
LTYPE
  2
dashed_dotted
 70
   64
  3
-----------     -     ----------
 72
   65
 73
    4
 40
9.25
 49
6
 49
-1.5
 49
0.25
 49
-1.5
  0
LTYPE
  2
double-dashed_dotted
 70
   64
  3
------   -----------   -   -----
 72
   65
 73
    6
 40
16.75
 49
6
 49
-1.5
 49
6
 49
-1.5
 49
0.25
 49
-1.5
  0
LTYPE
  2
dashed_double-dotted
 70
   64
  3
---------    -    -    ---------
 72
   65
 73
    6
 40
11
 49
6
 49
-1.5
 49
0.25
 49
-1.5
 49
0.25
 49
-1.5
  0
LTYPE
  2
double-dashed_double-dotted
 70
   64
  3
-----   ---------   -   -   ----
 72
   65
 73
    8
 40
18.5
 49
6
 49
-1.5
 49
6
 49
-1.5
 49
0.25
 49
-1.5
 49
0.25
 49
-1.5
  0
LTYPE
  2
dashed_triplicate-dotted
 70
   64
  3
-------    -    -    -    ------
 72
   65
 73
    8
 40
12.75
 49
6
 49
-1.5
 49
0.25
 49
-1.5
 49
0.25
 49
-1.5
 49
0.25
 49
-1.5
  0
LTYPE
  2
double-dashed_triplicate-dotted
 70
   64
  3
-----  ---------  -  -  -  -----
 72
   65
 73
   10
 40
20.25
 49
6
 49
-1.5
 49
6
 49
-1.5
 49
0.25
 49
-1.5
 49
0.25
 49
-1.5
 49
0.25
 49
-1.5
  0
LTYPE
  2
undefined
 70
   64
  3
--------------------------------
 72
   65
 73
    0
 40
0
  0
ENDTAB
  0
TABLE
  2
STYLE
  5
3
100
AcDbSymbolTable
 70
     1
  0
STYLE
  5
10
100
AcDbSymbolTableRecord
100
AcDbTextStyleTableRecord
  2
STANDARD
 70
     0
 40
0.0
 41
1.0
 50
0.0
 71
     0
 42
0.2
  3
txt
  4
bigfont.shx
  0
STYLE
  5
26
100
AcDbSymbolTableRecord
100
AcDbTextStyleTableRecord
  2
TATEGAKI
 70
    68
 40
0.0
 41
1.0
 50
0.0
 71
     0
 42
1.0
  3
txt
  4
bigfont.shx
  0
ENDTAB
  0
TABLE
  2
LAYER
 70
    4
  0
LAYER
  2
_0-0_
 70
   64
 62
    7
  6
CONTINUOUS
  0
LAYER
  2
_0-1_
 70
   64
 62
    7
  6
CONTINUOUS
  0
LAYER
  2
_0-2_
 70
   64
 62
    7
  6
CONTINUOUS
  0
LAYER
  2
ADD_LINE
 70
   64
 62
    7
  6
CONTINUOUS
  0
ENDTAB
  0
ENDSEC
  0
SECTION
  2
BLOCKS
  0
ENDSEC
  0
SECTION
  2
ENTITIES
  0
LINE
  8
_0-2_
  6
CONTINUOUS
 62
    7
 10
1058.8317458694046
 20
409.03751270191094
 11
1127.8318250501479
 21
409.03751270191094
  0
LINE
  8
_0-2_
  6
CONTINUOUS
 62
    7
 10
942.83177143818637
 20
409.03751270191094
 11
965.83179783176729
 21
409.03751270191094
  0
LINE
  8
_0-2_
  6
CONTINUOUS
 62
    7
 10
972.83180855415958
 20
409.03751270191094
 11
1051.8317970069679
 21
409.03751270191094
  0
LINE
  8
_0-0_
  6
CONTINUOUS
 62
    7
 10
1147.8318910341004
 20
862.05009254249376
 11
1142.8318745381123
 21
853.0500875936973
  0
LINE
  8
_0-0_
  6
CONTINUOUS
 62
    7
 10
1142.8318745381123
 20
853.0500875936973
 11
902.83176319019219
 21
853.0500875936973
  0
LINE
  8
_0-0_
  6
CONTINUOUS
 62
    7
 10
1147.8318910341004
 20
862.05009254249376
 11
1115.8318596917231
 21
862.05009254249376
  0
LINE
  8
_0-0_
  6
CONTINUOUS
 62
    7
 10
1095.8317937077704
 20
859.05007027290958
 11
1094.2469416437923
 21
859.05007027290958
  0
LINE
  8
_0-0_
  6
CONTINUOUS
 62
    7
 10
1094.2469416437923
 20
859.05007027290958
 11
902.83176319019219
 21
859.05007027290958
  0
LINE
  8
_0-0_
  6
CONTINUOUS
 62
    7
 10
1122.8318085541596
 20
1200.0501065640838
 11
1132.2115099107898
 21
1164.2588022592906
  0
LINE
  8
_0-0_
  6
CONTINUOUS
 62
    7
 10
1132.2115099107898
 20
1164.2588022592906
 11
1132.2115099107898
 21
1114.2587610193202
  0
LINE
  8
_0-0_
  6
CONTINUOUS
 62
    7
 10
1132.2115099107898
 20
1114.2587610193202
 11
1147.8318910341004
 21
862.05009254249376
  0
LINE
  8
_0-0_
  6
CONTINUOUS
 62
    7
 10
902.83176319019219
 20
1185.0501807960304
 11
902.83176319019219
 21
1152.2468360694679
  0
LINE
  8
_0-0_
  6
CONTINUOUS
 62
    7
 10
1040.9345472181167
 20
1159.0501939928211
 11
1132.2115099107898
 21
1159.0501939928211
  0
LINE
  8
ADD_LINE
  6
DOT
 62
    4
 10
1126.7187170080238
 20
1161.550202240815
 11
891.77998723210521
 21
1161.550202240815
  0
LINE
  8
_0-0_
  6
CONTINUOUS
 62
    7
 10
1040.9345472181167
 20
1164.0502104888092
 11
1126.0634963576858
 21
1164.0502104888092
  0
LINE
  8
_0-0_
  6
CONTINUOUS
 62
    7
 10
1118.7257921373523
 20
1192.0501296584671
 11
1126.0634963576858
 21
1164.0502104888092
  0
LINE
  8
ADD_LINE
  6
DOT
 62
    4
 10
966.83170215503594
 20
1199.077791781039
 11
966.83170215503594
 21
1149.0011679159629
  0
LINE
  8
ADD_LINE
  6
DOT
 62
    4
 10
1056.831813502956
 20
1199.077791781039
 11
1056.831813502956
 21
1149.0011679159629
  0
LINE
  8
ADD_LINE
  6
DOT
 62
    4
 10
1122.8318085541596
 20
1175.0501478040542
 11
947.83178793417449
 21
1175.0501478040542
  0
LINE
  8
_0-0_
  6
CONTINUOUS
 62
    7
 10
902.83176319019219
 20
1152.2468360694679
 11
902.83176319019219
 21
853.0500875936973
  0
LINE
  8
_0-0_
  6
CONTINUOUS
 62
    7
 10
1121.2114488756336
 20
1114.2587610193202
 11
1115.8318596917231
 21
862.05009254249376
  0
LINE
  8
_0-0_
  6
CONTINUOUS
 62
    7
 10
1121.2114488756336
 20
1159.0501939928211
 11
1121.2114488756336
 21
1114.2587610193202
  0
LINE
  8
_0-0_
  6
CONTINUOUS
 62
    7
 10
1102.8317425702071
 20
1159.0501939928211
 11
1095.8317937077704
 21
859.05007027290958
  0
LINE
  8
_0-0_
  6
CONTINUOUS
 62
    7
 10
1111.8317475190033
 20
859.05007027290958
 11
1118.2389542863175
 21
1159.0501939928211
  0
LINE
  8
_0-0_
  6
CONTINUOUS
 62
    7
 10
902.83176319019219
 20
1200.0501065640838
 11
902.83176319019219
 21
853.0500875936973
  0
LINE
  8
_0-0_
  6
CONTINUOUS
 62
    7
 10
867.83177143818637
 20
870.05006944811032
 11
902.83176319019219
 21
870.05006944811032
  0
LINE
  8
_0-0_
  6
CONTINUOUS
 62
    7
 10
902.83176319019219
 20
1191.0501016152873
 11
902.83176319019219
 21
1186.3216503246413
  0
LINE
  8
_0-0_
  6
CONTINUOUS
 62
    7
 10
867.83177143818637
 20
1187.050113162479
 11
902.83176319019219
 21
1187.050113162479
  0
LINE
  8
_0-0_
  6
CONTINUOUS
 62
    7
 10
872.83178793417449
 20
1187.050113162479
 11
872.83178793417449
 21
870.05006944811032
  0
LINE
  8
_0-0_
  6
CONTINUOUS
 62
    7
 10
884.83175329259939
 20
1187.050113162479
 11
884.83175329259939
 21
870.05006944811032
  0
LINE
  8
_0-0_
  6
CONTINUOUS
 62
    7
 10
867.83177143818637
 20
880.05010244008656
 11
872.83178793417449
 21
880.05010244008656
  0
LINE
  8
ADD_LINE
  6
DOT
 62
    4
 10
902.83176319019219
 20
1191.0501016152873
 11
902.83176319019219
 21
1210.727629790435
  0
LINE
  8
_0-0_
  6
CONTINUOUS
 62
    7
 10
1124.9283661713471
 20
1192.0501296584671
 11
867.83177143818637
 21
1192.0501296584671
  0
LINE
  8
_0-0_
  6
CONTINUOUS
 62
    7
 10
920.83177308778522
 20
1159.0501939928211
 11
1018.7289882350614
 21
1159.0501939928211
  0
LINE
  8
_0-0_
  6
CONTINUOUS
 62
    7
 10
920.83177308778522
 20
1164.0502104888092
 11
1018.7289882350614
 21
1164.0502104888092
  0
LINE
  8
_0-0_
  6
CONTINUOUS
 62
    7
 10
867.83177143818637
 20
1200.0501065640838
 11
867.83177143818637
 21
870.05006944811032
  0
LINE
  8
_0-0_
  6
CONTINUOUS
 62
    7
 10
1122.8318085541596
 20
1200.0501065640838
 11
867.83177143818637
 21
1200.0501065640838
  0
LINE
  8
_0-0_
  6
CONTINUOUS
 62
    7
 10
888.8317417454075
 20
925.05006532411335
 11
893.83175824139573
 21
895.05009006809541
  0
LINE
  8
_0-0_
  6
CONTINUOUS
 62
    7
 10
888.8317417454075
 20
895.05009006809541
 11
893.83175824139573
 21
895.05009006809541
  0
LINE
  8
_0-0_
  6
CONTINUOUS
 62
    7
 10
888.8317417454075
 20
895.05009006809541
 11
893.83175824139573
 21
870.05006944811032
  0
LINE
  8
_0-0_
  6
CONTINUOUS
 62
    7
 10
888.8317417454075
 20
1187.050113162479
 11
888.8317417454075
 21
925.05006532411335
  0
LINE
  8
_0-2_
  6
CONTINUOUS
 62
    7
 10
567.56837174699115
 20
860.05009831608959
 11
565.9501153069574
 21
856.05004800332563
  0
LINE
  8
_0-2_
  6
CONTINUOUS
 62
    7
 10
565.9501153069574
 20
856.05004800332563
 11
537.56839649097344
 21
853.0500875936973
  0
LINE
  8
_0-2_
  6
CONTINUOUS
 62
    7
 10
552.56844597893792
 20
868.05007522170615
 11
537.56839649097344
 21
861.05006449931375
  0
LINE
  8
_0-2_
  6
CONTINUOUS
 62
    7
 10
537.56839649097344
 20
1192.0501296584671
 11
538.37715355125636
 21
1190.0500735721073
  0
LINE
  8
_0-2_
  6
CONTINUOUS
 62
    7
 10
552.56844597893792
 20
1182.0500966664908
 11
538.37715355125636
 21
1190.0500735721073
  0
LINE
  8
_0-2_
  6
CONTINUOUS
 62
    7
 10
537.56839649097344
 20
1200.0501065640838
 11
537.56839649097344
 21
1192.0501296584671
  0
LINE
  8
_0-2_
  6
CONTINUOUS
 62
    7
 10
537.56839649097344
 20
861.05006449931375
 11
537.56839649097344
 21
853.0500875936973
  0
LINE
  8
_0-2_
  6
CONTINUOUS
 62
    7
 10
552.56844597893792
 20
1182.0500966664908
 11
552.56844597893792
 21
868.05007522170615
  0
LINE
  8
_0-2_
  6
CONTINUOUS
 62
    7
 10
571.56836019979937
 20
1162.0501544024494
 11
571.56836019979937
 21
1158.0500422297298
  0
LINE
  8
_0-2_
  6
CONTINUOUS
 62
    7
 10
571.56836019979937
 20
1158.0500422297298
 11
567.56837174699115
 21
1158.0500422297298
  0
LINE
  8
_0-2_
  6
CONTINUOUS
 62
    7
 10
571.56836019979937
 20
1162.0501544024494
 11
567.56837174699115
 21
1162.0501544024494
  0
LINE
  8
_0-2_
  6
CONTINUOUS
 62
    7
 10
567.56837174699115
 20
1158.0500422297298
 11
567.56837174699115
 21
860.05009831608959
  0
LINE
  8
_0-2_
  6
CONTINUOUS
 62
    7
 10
571.56836019979937
 20
1200.0501065640838
 11
537.56839649097344
 21
1200.0501065640838
  0
LINE
  8
_0-2_
  6
CONTINUOUS
 62
    7
 10
556.56843443174625
 20
1200.0501065640838
 11
556.56843443174625
 21
1189.1748789194469
  0
LINE
  8
_0-2_
  6
CONTINUOUS
 62
    7
 10
571.56836019979937
 20
1186.0500851192992
 11
556.56843443174625
 21
1189.1748789194469
  0
LINE
  8
_0-2_
  6
CONTINUOUS
 62
    7
 10
571.56836019979937
 20
1179.0501362568623
 11
567.56837174699115
 21
1177.6501217403929
  0
LINE
  8
_0-2_
  6
CONTINUOUS
 62
    7
 10
571.56836019979937
 20
1200.0501065640838
 11
571.56836019979937
 21
1179.0501362568623
  0
LINE
  8
_0-2_
  6
CONTINUOUS
 62
    7
 10
567.56837174699115
 20
1177.6501217403929
 11
567.56837174699115
 21
1162.0501544024494
  0
LINE
  8
ADD_LINE
  6
DOT
 62
    4
 10
537.56839649097344
 20
853.0500875936973
 11
458.80625956767318
 21
853.0500875936973
  0
LINE
  8
_0-2_
  6
CONTINUOUS
 62
    7
 10
543.56844103014146
 20
888.05007934570313
 11
552.56844597893792
 21
886.05008511929907
  0
LINE
  8
_0-2_
  6
CONTINUOUS
 62
    7
 10
552.56844597893792
 20
940.05011481207771
 11
543.56844103014146
 21
938.05012058567354
  0
LINE
  8
_0-2_
  6
CONTINUOUS
 62
    7
 10
543.56844103014146
 20
938.05012058567354
 11
543.56844103014146
 21
888.05007934570313
  0
LINE
  8
_0-2_
  6
CONTINUOUS
 62
    7
 10
543.56844103014146
 20
1023.0500917176943
 11
552.56844597893792
 21
1021.0500974912902
  0
LINE
  8
_0-2_
  6
CONTINUOUS
 62
    7
 10
543.56844103014146
 20
1058.0500834697002
 11
543.56844103014146
 21
1023.0500917176943
  0
LINE
  8
_0-2_
  6
CONTINUOUS
 62
    7
 10
552.56844597893792
 20
1060.05013955606
 11
543.56844103014146
 21
1058.0500834697002
  0
LINE
  8
_0-2_
  6
CONTINUOUS
 62
    7
 10
543.56844103014146
 20
1187.1236027898017
 11
543.56844103014146
 21
1163.0500587257179
  0
LINE
  8
_0-2_
  6
CONTINUOUS
 62
    7
 10
552.56844597893792
 20
1159.0500702729096
 11
543.56844103014146
 21
1163.0500587257179
  0
LINE
  8
_0-2_
  6
CONTINUOUS
 62
    7
 10
1428.6403346706081
 20
1200.0501065640838
 11
1493.6403016786317
 21
1200.0501065640838
  0
LINE
  8
_0-2_
  6
CONTINUOUS
 62
    7
 10
1493.6403016786317
 20
1200.0501065640838
 11
1528.6402934306377
 21
853.0500875936973
  0
LINE
  8
_0-2_
  6
CONTINUOUS
 62
    7
 10
1428.6403346706081
 20
862.05009254249376
 11
1528.6402934306377
 21
862.05009254249376
  0
LINE
  8
_0-2_
  6
CONTINUOUS
 62
    7
 10
1436.6403115762248
 20
853.0500875936973
 11
1528.6402934306377
 21
853.0500875936973
  0
LINE
  8
_0-2_
  6
CONTINUOUS
 62
    7
 10
1436.6403115762248
 20
853.0500875936973
 11
1428.6403346706081
 21
862.05009254249376
  0
LINE
  8
_0-2_
  6
CONTINUOUS
 62
    7
 10
1428.6403346706081
 20
1200.0501065640838
 11
1428.6403346706081
 21
862.05009254249376
  0
LINE
  8
_0-2_
  6
CONTINUOUS
 62
    7
 10
902.83176319019219
 20
425.03749744312188
 11
902.83176319019219
 21
410.03750981511297
  0
LINE
  8
_0-2_
  6
CONTINUOUS
 62
    7
 10
888.8317417454075
 20
410.03750981511297
 11
902.83176319019219
 21
410.03750981511297
  0
LINE
  8
_0-1_
  6
CONTINUOUS
 62
    7
 10
902.83176319019219
 20
674.43404326567793
 11
902.83176319019219
 21
644.43400614970437
  0
LINE
  8
_0-1_
  6
CONTINUOUS
 62
    7
 10
1108.831787109375
 20
644.43400614970437
 11
902.83176319019219
 21
644.43400614970437
  0
LINE
  8
_0-1_
  6
CONTINUOUS
 62
    7
 10
1113.8318036053633
 20
647.43402841928844
 11
1108.831787109375
 21
644.43400614970437
  0
LINE
  8
_0-1_
  6
CONTINUOUS
 62
    7
 10
1129.8318811365077
 20
647.43402841928844
 11
1113.8318036053633
 21
647.43402841928844
  0
LINE
  8
_0-1_
  6
CONTINUOUS
 62
    7
 10
1147.8318910341004
 20
579.43403914168084
 11
1142.8318745381123
 21
574.43402264569261
  0
LINE
  8
_0-1_
  6
CONTINUOUS
 62
    7
 10
1142.8318745381123
 20
668.43406058646542
 11
1142.8318745381123
 21
574.43402264569261
  0
LINE
  8
_0-1_
  6
CONTINUOUS
 62
    7
 10
1142.8318745381123
 20
668.43406058646542
 11
902.83176319019219
 21
668.43406058646542
  0
LINE
  8
_0-1_
  6
CONTINUOUS
 62
    7
 10
1147.8318910341004
 20
670.43405481286959
 11
1145.8318349477408
 21
674.43404326567793
  0
LINE
  8
_0-1_
  6
CONTINUOUS
 62
    7
 10
1147.8318910341004
 20
670.43405481286959
 11
1147.8318910341004
 21
579.43403914168084
  0
LINE
  8
_0-1_
  6
CONTINUOUS
 62
    7
 10
1145.8318349477408
 20
674.43404326567793
 11
1115.8318596917231
 21
674.43404326567793
  0
LINE
  8
_0-1_
  6
CONTINUOUS
 62
    7
 10
1094.2469416437923
 20
674.43404326567793
 11
902.83176319019219
 21
674.43404326567793
  0
LINE
  8
_0-1_
  6
CONTINUOUS
 62
    7
 10
1130.8317854597763
 20
574.43402264569261
 11
1142.8318745381123
 21
574.43402264569261
  0
LINE
  8
_0-1_
  6
CONTINUOUS
 62
    7
 10
1129.8318811365077
 20
575.4340506888725
 11
1129.8318811365077
 21
647.43402841928844
  0
LINE
  8
_0-1_
  6
CONTINUOUS
 62
    7
 10
1130.8317854597763
 20
574.43402264569261
 11
1129.8318811365077
 21
575.4340506888725
  0
LINE
  8
_0-2_
  6
CONTINUOUS
 62
    7
 10
902.83176319019219
 20
425.03749744312188
 11
902.83176319019219
 21
413.03750115471922
  0
LINE
  8
_0-2_
  6
CONTINUOUS
 62
    7
 10
902.83176319019219
 20
425.03749744312188
 11
902.83176319019219
 21
413.03750115471922
  0
LINE
  8
_0-2_
  6
CONTINUOUS
 62
    7
 10
942.83177143818637
 20
409.03751270191094
 11
940.8092601879224
 21
414.03749826792131
  0
LINE
  8
_0-2_
  6
CONTINUOUS
 62
    7
 10
1127.8318250501479
 20
409.03751270191094
 11
1127.8318250501479
 21
340.03749538112334
  0
LINE
  8
_0-2_
  6
CONTINUOUS
 62
    7
 10
1139.8317904085727
 20
340.03749538112334
 11
1127.8318250501479
 21
340.03749538112334
  0
LINE
  8
_0-2_
  6
CONTINUOUS
 62
    7
 10
1142.831750818201
 20
343.03751765070734
 11
1142.831750818201
 21
425.03749744312188
  0
LINE
  8
_0-2_
  6
CONTINUOUS
 62
    7
 10
1139.8317904085727
 20
340.03749538112334
 11
1142.831750818201
 21
343.03751765070734
  0
LINE
  8
_0-2_
  6
CONTINUOUS
 62
    7
 10
1142.831750818201
 20
425.03749744312188
 11
1117.8650727143158
 21
425.03749744312188
  0
LINE
  8
_0-2_
  6
CONTINUOUS
 62
    7
 10
1096.2801546663852
 20
425.03749744312188
 11
902.83176319019219
 21
425.03749744312188
  0
LINE
  8
_0-2_
  6
CONTINUOUS
 62
    7
 10
902.83176319019219
 20
425.03749744312188
 11
902.83176319019219
 21
413.03750115471922
  0
LINE
  8
_0-2_
  6
CONTINUOUS
 62
    7
 10
902.83176319019219
 20
425.03749744312188
 11
902.83176319019219
 21
413.03750115471922
  0
LINE
  8
_0-2_
  6
CONTINUOUS
 62
    7
 10
867.83177143818637
 20
413.03750115471922
 11
872.83178793417449
 21
413.03750115471922
  0
LINE
  8
_0-2_
  6
CONTINUOUS
 62
    7
 10
872.83178793417449
 20
413.03750115471922
 11
872.83178793417449
 21
410.03750981511297
  0
LINE
  8
_0-2_
  6
CONTINUOUS
 62
    7
 10
884.83175329259939
 20
413.03750115471922
 11
888.8317417454075
 21
413.03750115471922
  0
LINE
  8
_0-2_
  6
CONTINUOUS
 62
    7
 10
884.83175329259939
 20
413.03750115471922
 11
884.83175329259939
 21
410.03750981511297
  0
LINE
  8
_0-2_
  6
CONTINUOUS
 62
    7
 10
888.8317417454075
 20
413.03750115471922
 11
888.8317417454075
 21
410.03750981511297
  0
LINE
  8
_0-2_
  6
CONTINUOUS
 62
    7
 10
872.83178793417449
 20
410.03750981511297
 11
884.83175329259939
 21
410.03750981511297
  0
LINE
  8
_0-2_
  6
CONTINUOUS
 62
    7
 10
867.83177143818637
 20
413.03750115471922
 11
867.83177143818637
 21
403.03749909272074
  0
LINE
  8
_0-2_
  6
CONTINUOUS
 62
    7
 10
905.54859058277032
 20
403.03749909272074
 11
867.83177143818637
 21
403.03749909272074
  0
LINE
  8
_0-2_
  6
CONTINUOUS
 62
    7
 10
908.07952880859375
 20
404.42687369681693
 11
913.94762606234167
 21
413.64812077702703
  0
LINE
  8
_0-2_
  6
CONTINUOUS
 62
    7
 10
940.8092601879224
 20
414.03749826792131
 11
914.24251247096709
 21
414.03749826792131
  0
LINE
  8
_0-2_
  6
CONTINUOUS
 62
    7
 10
537.56839649097344
 20
1371.4517954233531
 11
537.56839649097344
 21
1245.661431389886
  0
LINE
  8
_0-2_
  6
CONTINUOUS
 62
    7
 10
571.56836019979937
 20
1371.4517954233531
 11
571.56836019979937
 21
1245.661431389886
  0
LINE
  8
_0-2_
  6
CONTINUOUS
 62
    7
 10
537.56839649097344
 20
1371.4517954233531
 11
571.56836019979937
 21
1371.4517954233531
  0
LINE
  8
_0-2_
  6
CONTINUOUS
 62
    7
 10
867.83177143818637
 20
1371.4517954233531
 11
867.83177143818637
 21
1245.661431389886
  0
LINE
  8
_0-2_
  6
CONTINUOUS
 62
    7
 10
1122.8318085541596
 20
1371.4517954233531
 11
1122.8318085541596
 21
1245.661431389886
  0
LINE
  8
_0-2_
  6
CONTINUOUS
 62
    7
 10
867.83177143818637
 20
1371.4517954233531
 11
1122.8318085541596
 21
1371.4517954233531
  0
LINE
  8
_0-2_
  6
CONTINUOUS
 62
    7
 10
1428.6403346706081
 20
1371.4517954233531
 11
1428.6403346706081
 21
1245.661431389886
  0
LINE
  8
_0-2_
  6
CONTINUOUS
 62
    7
 10
1493.6403016786317
 20
1371.4517954233531
 11
1493.6403016786317
 21
1245.661431389886
  0
LINE
  8
_0-2_
  6
CONTINUOUS
 62
    7
 10
1428.6403346706081
 20
1371.4517954233531
 11
1493.6403016786317
 21
1371.4517954233531
  0
LINE
  8
_0-2_
  6
CONTINUOUS
 62
    7
 10
867.83177143818637
 20
759.97089695286104
 11
867.83177143818637
 21
819.37185751425261
  0
LINE
  8
_0-2_
  6
CONTINUOUS
 62
    7
 10
902.83176319019219
 20
759.97089695286104
 11
902.83176319019219
 21
819.37185751425261
  0
LINE
  8
_0-2_
  6
CONTINUOUS
 62
    7
 10
867.83177143818637
 20
759.97089695286104
 11
902.83176319019219
 21
759.97089695286104
  0
LINE
  8
_0-2_
  6
CONTINUOUS
 62
    7
 10
1147.8318910341004
 20
759.97089695286104
 11
1147.8318910341004
 21
819.37185751425261
  0
LINE
  8
_0-2_
  6
CONTINUOUS
 62
    7
 10
902.83176319019219
 20
759.97089695286104
 11
1147.8318910341004
 21
759.97089695286104
  0
LINE
  8
_0-2_
  6
CONTINUOUS
 62
    7
 10
1428.6403346706081
 20
759.97089695286104
 11
1428.6403346706081
 21
819.37185751425261
  0
LINE
  8
_0-2_
  6
CONTINUOUS
 62
    7
 10
1528.6402934306377
 20
759.97089695286104
 11
1528.6402934306377
 21
819.37185751425261
  0
LINE
  8
_0-2_
  6
CONTINUOUS
 62
    7
 10
1428.6403346706081
 20
759.97089695286104
 11
1528.6402934306377
 21
759.97089695286104
  0
LINE
  8
_0-2_
  6
CONTINUOUS
 62
    7
 10
867.83177143818637
 20
218.37354608484219
 11
867.83177143818637
 21
314.46338344264677
  0
LINE
  8
_0-2_
  6
CONTINUOUS
 62
    7
 10
1142.831750818201
 20
218.37354608484219
 11
1142.831750818201
 21
314.46338344264677
  0
LINE
  8
_0-2_
  6
CONTINUOUS
 62
    7
 10
867.83177143818637
 20
218.37354608484219
 11
1142.831750818201
 21
218.37354608484219
  0
LINE
  8
_0-2_
  6
CONTINUOUS
 62
    7
 10
337.18800931363489
 20
1200.0501065640838
 11
482.19634391166068
 21
1200.0501065640838
  0
LINE
  8
_0-2_
  6
CONTINUOUS
 62
    7
 10
337.18800931363489
 20
853.0500875936973
 11
482.19634391166068
 21
853.0500875936973
  0
LINE
  8
_0-2_
  6
CONTINUOUS
 62
    7
 10
1306.8219983899917
 20
340.03749538112334
 11
1207.2379859718117
 21
340.03749538112334
  0
LINE
  8
_0-2_
  6
CONTINUOUS
 62
    7
 10
1306.8219983899917
 20
425.03749744312188
 11
1207.2379859718117
 21
425.03749744312188
  0
LINE
  8
_0-2_
  6
CONTINUOUS
 62
    7
 10
1306.8219983899917
 20
340.03749538112334
 11
1306.8219983899917
 21
425.03749744312188
  0
LINE
  8
_0-2_
  6
CONTINUOUS
 62
    7
 10
1701.6639503272804
 20
1200.0501065640838
 11
1581.1148566168708
 21
1200.0501065640838
  0
LINE
  8
_0-2_
  6
CONTINUOUS
 62
    7
 10
1701.6639503272804
 20
853.0500875936973
 11
1581.1148566168708
 21
853.0500875936973
  0
LINE
  8
_0-2_
  6
CONTINUOUS
 62
    7
 10
1701.6639503272804
 20
1200.0501065640838
 11
1701.6639503272804
 21
853.0500875936973
  0
LINE
  8
_0-2_
  6
CONTINUOUS
 62
    7
 10
337.18800931363489
 20
1200.0501065640838
 11
337.18800931363489
 21
853.0500875936973
  0
ARC
  8
_0-0_
  6
CONTINUOUS
 62
    7
 10
1103.8317706133869
 20
869.94942330025333
 40
13.520171835615828
 50
233.72166442871097
 51
306.27835083007818
  0
ARC
  8
_0-0_
  6
CONTINUOUS
 62
    7
 10
1103.2177486935179
 20
874.7023092733848
 40
17.866046364242965
 50
298.82585144042969
 51
314.91357421875
  0
ARC
  8
_0-0_
  6
CONTINUOUS
 62
    7
 10
1018.2942364666915
 20
1161.550202240815
 40
2.5375275193033993
 50
279.86605834960937
 51
80.133956909179688
  0
ARC
  8
_0-0_
  6
CONTINUOUS
 62
    7
 10
1041.3692989864867
 20
1161.550202240815
 40
2.5375275193033993
 50
99.866043090820313
 51
260.13394165039062
  0
CIRCLE
  8
_0-0_
  6
CONTINUOUS
 62
    7
 10
966.83170215503594
 20
1175.0501478040542
 40
7.5000000966561808
  0
CIRCLE
  8
_0-0_
  6
CONTINUOUS
 62
    7
 10
966.83170215503594
 20
1175.0501478040542
 40
2.0000000257749817
  0
CIRCLE
  8
_0-0_
  6
CONTINUOUS
 62
    7
 10
1056.831813502956
 20
1175.0501478040542
 40
7.5000000966561808
  0
CIRCLE
  8
_0-0_
  6
CONTINUOUS
 62
    7
 10
1056.831813502956
 20
1175.0501478040542
 40
2.0000000257749817
  0
ARC
  8
_0-0_
  6
CONTINUOUS
 62
    7
 10
921.26658671611062
 20
1161.550202240815
 40
2.5375275193033993
 50
99.866043090820313
 51
260.13394165039062
  0
ARC
  8
_0-1_
  6
CONTINUOUS
 62
    7
 10
1105.0394006677577
 20
682.16004242768167
 40
13.272849933521169
 50
215.59773254394531
 51
324.40225219726568
  0
ARC
  8
_0-1_
  6
CONTINUOUS
 62
    7
 10
1107.0726136903504
 20
432.76349660512562
 40
13.272849933521169
 50
215.59773254394531
 51
324.40225219726568
  0
ARC
  8
_0-2_
  6
CONTINUOUS
 62
    7
 10
905.54859058277032
 20
406.03749043232688
 40
3.0000000386624723
 50
270
 51
327.52879333496094
  0
ARC
  8
_0-2_
  6
CONTINUOUS
 62
    7
 10
916.47862614812084
 20
412.03750404151714
 40
3.0000000386624723
 50
138.18965148925784
 51
147.52879333496094
  0
TEXT
  8
_0-2_
 62
    7
 10
548.31837834538646
 20
1373.9518036713471
 40
12.5
 41
1
 50
0
  1
34
  0
TEXT
  8
_0-2_
 62
    7
 10
985.95675906619522
 20
1373.9518036713471
 40
12.5
 41
1
 50
0
  1
255
  0
TEXT
  8
_0-2_
 62
    7
 10
1454.8903181746198
 20
1373.9518036713471
 40
12.5
 41
1
 50
0
  1
65
  0
TEXT
  8
_0-2_
 62
    7
 10
879.08176731418939
 20
762.47090520085521
 40
12.5
 41
1
 50
0
  1
35
  0
TEXT
  8
_0-2_
 62
    7
 10
1015.9568580421242
 20
762.47090520085521
 40
12.5
 41
1
 50
0
  1
245
  0
TEXT
  8
_0-2_
 62
    7
 10
1469.2653759105788
 20
762.47090520085521
 40
12.5
 41
1
 50
0
  1
100
  0
TEXT
  8
_0-2_
 62
    7
 10
995.95679205817146
 20
220.8735388678474
 40
12.5
 41
1
 50
0
  1
275
  0
TEXT
  8
_0-2_
 62
    7
 10
1304.3219901419977
 20
376.28749641212261
 40
12.5
 41
1
 50
90
  1
85
  0
TEXT
  8
_0-2_
 62
    7
 10
1699.1639420792865
 20
1017.1751280088683
 40
12.5
 41
1
 50
90
  1
350
  0
TEXT
  8
_0-2_
 62
    7
 10
334.68803199561876
 20
1017.1751280088683
 40
12.5
 41
1
 50
90
  1
350
  0
POINT
  8
_0-2_
 62
    7
 10
537.56839649097344
 20
1371.4517954233531
  0
POINT
  8
_0-2_
 62
    7
 10
571.56836019979937
 20
1371.4517954233531
  0
POINT
  8
_0-2_
 62
    7
 10
867.83177143818637
 20
1371.4517954233531
  0
POINT
  8
_0-2_
 62
    7
 10
1122.8318085541596
 20
1371.4517954233531
  0
POINT
  8
_0-2_
 62
    7
 10
1428.6403346706081
 20
1371.4517954233531
  0
POINT
  8
_0-2_
 62
    7
 10
1493.6403016786317
 20
1371.4517954233531
  0
POINT
  8
_0-2_
 62
    7
 10
867.83177143818637
 20
759.97089695286104
  0
POINT
  8
_0-2_
 62
    7
 10
902.83176319019219
 20
759.97089695286104
  0
POINT
  8
_0-2_
 62
    7
 10
1147.8318910341004
 20
759.97089695286104
  0
POINT
  8
_0-2_
 62
    7
 10
1428.6403346706081
 20
759.97089695286104
  0
POINT
  8
_0-2_
 62
    7
 10
1528.6402934306377
 20
759.97089695286104
  0
POINT
  8
_0-2_
 62
    7
 10
867.83177143818637
 20
218.37354608484219
  0
POINT
  8
_0-2_
 62
    7
 10
1142.831750818201
 20
218.37354608484219
  0
POINT
  8
_0-2_
 62
    7
 10
337.18800931363489
 20
1200.0501065640838
  0
POINT
  8
_0-2_
 62
    7
 10
337.18800931363489
 20
853.0500875936973
  0
POINT
  8
_0-2_
 62
    7
 10
1306.8219983899917
 20
340.03749538112334
  0
POINT
  8
_0-2_
 62
    7
 10
1306.8219983899917
 20
425.03749744312188
  0
POINT
  8
_0-2_
 62
    7
 10
1701.6639503272804
 20
1200.0501065640838
  0
POINT
  8
_0-2_
 62
    7
 10
1701.6639503272804
 20
853.0500875936973
  0
LINE
  8
_0-2_
  6
CONTINUOUS
 62
    7
 10
966.83176401499168
 20
398.03750775311443
 11
971.8317805109798
 21
398.03750775311443
  0
LINE
  8
_0-2_
  6
CONTINUOUS
 62
    7
 10
1052.8318250501479
 20
398.03750775311443
 11
1057.831841546136
 21
398.03750775311443
  0
LINE
  8
_0-2_
  6
CONTINUOUS
 62
    7
 10
1058.8317458694046
 20
409.03751270191094
 11
1057.831841546136
 21
398.03750775311443
  0
LINE
  8
_0-2_
  6
CONTINUOUS
 62
    7
 10
1052.8318250501479
 20
398.03750775311443
 11
1051.8317970069679
 21
409.03751270191094
  0
LINE
  8
_0-2_
  6
CONTINUOUS
 62
    7
 10
972.83180855415958
 20
409.03751270191094
 11
971.8317805109798
 21
398.03750775311443
  0
LINE
  8
_0-2_
  6
CONTINUOUS
 62
    7
 10
966.83176401499168
 20
398.03750775311443
 11
965.83179783176729
 21
409.03751270191094
  0
ENDSEC
  0
EOF
