0
SECTION
2
HEADER
  9
$EXTMIN
10
0
20
0
30
0
  9
$EXTMAX
10
1885.786
20
1945.809
30
0
  9
$LTSCALE
40
5.000
  9
$DIMSCALE
40
5.000
  9
$PDMODE
70
0
  9
$PDSIZE
40
40
0
ENDSEC
0
SECTION
2
TABLES
0
TABLE
2
LTYPE
70
9
0
LTYPE
5
1f4
2
CONTINUOUS
70
0
3
実線
72
65
73
0
40
0.0
0
LTYPE
5
1f5
2
DOT
70
0
3
--  --  --  --  --  --  --  --     
72
65
73
2
40
5.000
49
1.000
49
-4.000
0
LTYPE
5
1f6
2
DASHED
70
0
3
----    ----    ----    ----    
72
65
73
2
40
5.000
49
2.000
49
-3.000
0
LTYPE
5
1f7
2
DASHED2
70
0
3
------  ------  ------  ------ 
72
65
73
2
40
10.000
49
4.000
49
-6.000
0
LTYPE
5
1f8
2
CENTER
70
0
3
----- - ----- - ----- - ----- - 
72
65
73
4
40
9.000
49
6.000
49
-1.000
49
1.000
49
-1.000
0
LTYPE
5
1f9
2
CENTER2
70
0
3
----------  --  ----------  -- 
72
65
73
4
40
18.000
49
12.000
49
-2.000
49
2.000
49
-2.000
0
LTYPE
5
1fa
2
PHANTOM
70
0
3
--- - - --- - - --- - - --- - -
72
65
73
6
40
10.000
49
5.000
49
-1.000
49
1.000
49
-1.000
49
1.000
49
-1.000
0
LTYPE
5
1fb
2
PHANTOM2
70
0
3
--------  -  -  --------  -  -
72
65
73
6
40
16.000
49
6.000
49
-2.000
49
2.000
49
-2.000
49
2.000
49
-2.000
0
LTYPE
5
1fc
2
HIDDEN
70
0
3
-   -   -   -   -   -   -   -   
72
65
73
2
40
2.500
49
0.500
49
-2.000
0
ENDTAB
0
TABLE
2
STYLE
70
1
0
STYLE
5
1fd
100
AcDbSymbolTableRecord
100
AcDbTextStyleTableRecord
2
STANDARD
70
0
40
0.0
41
1.0
50
0.0
71
0
42
0.0
3
txt.shx
4
extfont.shx
0
STYLE
5
1fe
100
AcDbSymbolTableRecord
100
AcDbTextStyleTableRecord
2
TATEGAKI
70
4
40
0.0
41
1.0
50
0.0
71
0
42
0.0
3
txt.shx
4
extfont.shx
0
STYLE
5
1ff
100
AcDbSymbolTableRecord
100
AcDbTextStyleTableRecord
2
MT
70
0
40
0.0
41
1.0
50
0.0
71
0
42
0.0
3
MS Mincho
4

0
STYLE
5
200
100
AcDbSymbolTableRecord
100
AcDbTextStyleTableRecord
2
TMT
70
4
40
0.0
41
1.0
50
0.0
71
0
42
0.0
3
@MS Mincho
4

0
ENDTAB
0
TABLE
2
LAYER
5
94b
100
AcDbSymbolTable
70
10
0
LAYER
5
94c
100
AcDbSymbolTableRecord
100
AcDbLayerTableRecord
2
0
70
64
62
  7
  6
CONTINUOUS
0
LAYER
5
94d
100
AcDbSymbolTableRecord
100
AcDbLayerTableRecord
2
0-0
70
64
62
  7
  6
CONTINUOUS
0
LAYER
5
94e
100
AcDbSymbolTableRecord
100
AcDbLayerTableRecord
2
0-1
70
64
62
  7
  6
CONTINUOUS
0
LAYER
5
94f
100
AcDbSymbolTableRecord
100
AcDbLayerTableRecord
2
0-2
70
64
62
  7
  6
CONTINUOUS
0
LAYER
5
950
100
AcDbSymbolTableRecord
100
AcDbLayerTableRecord
2
ADD_LINE
70
64
62
  -7
  6
CONTINUOUS
0
ENDTAB
0
ENDSEC
0
SECTION
2
ENTITIES
0
LINE
5
951
8
0-0
6
CONTINUOUS
62
  7
10
1179.730
20
1252.703
30
0.0
11
1179.730
21
897.703
31
0.0
0
LINE
5
952
8
0-0
6
CONTINUOUS
62
  7
10
1055.730
20
1252.703
30
0.0
11
1179.730
21
1252.703
31
0.0
0
LINE
5
953
8
0-0
6
CONTINUOUS
62
  7
10
1164.730
20
1252.703
30
0.0
11
1166.730
21
922.703
31
0.0
0
LINE
5
954
8
0-0
6
CONTINUOUS
62
  7
10
1035.730
20
897.703
30
0.0
11
1179.730
21
897.703
31
0.0
0
LINE
5
955
8
0-0
6
CONTINUOUS
62
  7
10
1031.753
20
921.551
30
0.0
11
1035.730
21
897.703
31
0.0
0
LINE
5
956
8
0-0
6
CONTINUOUS
62
  7
10
1031.654
20
922.703
30
0.0
11
1166.730
21
922.703
31
0.0
0
LINE
5
957
8
0-0
6
CONTINUOUS
62
  7
10
1055.730
20
1252.703
30
0.0
11
1054.265
21
1232.703
31
0.0
0
LINE
5
958
8
0-0
6
CONTINUOUS
62
  7
10
1053.899
20
1227.703
30
0.0
11
1031.678
21
924.307
31
0.0
0
LINE
5
959
8
0-0
6
CONTINUOUS
62
  7
10
1054.265
20
1232.703
30
0.0
11
1167.351
21
1232.703
31
0.0
0
LINE
5
95a
8
0-0
6
CONTINUOUS
62
  7
10
1053.899
20
1227.703
30
0.0
11
1167.381
21
1227.703
31
0.0
0
LINE
5
95b
8
0-0
6
CONTINUOUS
62
  7
10
617.892
20
1252.703
30
0.0
11
591.892
21
897.703
31
0.0
0
LINE
5
95c
8
0-0
6
CONTINUOUS
62
  7
10
741.892
20
1252.703
30
0.0
11
617.892
21
1252.703
31
0.0
0
LINE
5
95d
8
0-0
6
CONTINUOUS
62
  7
10
606.758
20
922.703
30
0.0
11
632.932
21
1252.703
31
0.0
0
LINE
5
95e
8
0-0
6
CONTINUOUS
62
  7
10
735.892
20
897.703
30
0.0
11
591.892
21
897.703
31
0.0
0
LINE
5
95f
8
0-0
6
CONTINUOUS
62
  7
10
741.709
20
921.940
30
0.0
11
735.892
21
897.703
31
0.0
0
LINE
5
960
8
0-0
6
CONTINUOUS
62
  7
10
741.870
20
922.703
30
0.0
11
606.758
21
922.703
31
0.0
0
LINE
5
961
8
0-0
6
CONTINUOUS
62
  7
10
1179.730
20
691.351
30
0.0
11
1166.730
21
701.351
31
0.0
0
LINE
5
962
8
0-0
6
CONTINUOUS
62
  7
10
1179.730
20
691.351
30
0.0
11
1179.730
21
679.351
31
0.0
0
LINE
5
963
8
0-0
6
CONTINUOUS
62
  7
10
1179.730
20
679.351
30
0.0
11
1169.730
21
679.351
31
0.0
0
LINE
5
964
8
0-0
6
CONTINUOUS
62
  7
10
1169.730
20
679.351
30
0.0
11
1158.730
21
686.351
31
0.0
0
LINE
5
965
8
0-0
6
CONTINUOUS
62
  7
10
1029.730
20
564.351
30
0.0
11
1039.730
21
551.351
31
0.0
0
LINE
5
966
8
0-0
6
CONTINUOUS
62
  7
10
1051.730
20
551.351
30
0.0
11
1039.730
21
551.351
31
0.0
0
LINE
5
967
8
0-0
6
CONTINUOUS
62
  7
10
1051.730
20
561.351
30
0.0
11
1051.730
21
551.351
31
0.0
0
LINE
5
968
8
0-0
6
CONTINUOUS
62
  7
10
1051.730
20
561.351
30
0.0
11
1044.730
21
572.351
31
0.0
0
LINE
5
969
8
0-0
6
CONTINUOUS
62
  7
10
1166.730
20
701.351
30
0.0
11
1050.943
21
701.351
31
0.0
0
LINE
5
96a
8
0-0
6
CONTINUOUS
62
  7
10
1029.730
20
681.352
30
0.0
11
1029.730
21
564.351
31
0.0
0
LINE
5
96b
8
0-0
6
CONTINUOUS
62
  7
10
1158.730
20
686.351
30
0.0
11
1057.355
21
686.351
31
0.0
0
LINE
5
96c
8
0-0
6
CONTINUOUS
62
  7
10
1044.730
20
672.209
30
0.0
11
1044.730
21
572.351
31
0.0
0
LINE
5
96d
8
0-0
6
CONTINUOUS
62
  7
10
1029.730
20
276.514
30
0.0
11
1035.730
21
263.514
31
0.0
0
LINE
5
96e
8
0-0
6
CONTINUOUS
62
  7
10
1166.730
20
413.514
30
0.0
11
1179.730
21
407.513
31
0.0
0
LINE
5
96f
8
0-0
6
CONTINUOUS
62
  7
10
1179.730
20
403.513
30
0.0
11
1179.730
21
407.513
31
0.0
0
LINE
5
970
8
0-0
6
CONTINUOUS
62
  7
10
1053.595
20
263.514
30
0.0
11
1054.624
21
269.271
31
0.0
0
LINE
5
971
8
0-0
6
CONTINUOUS
62
  7
10
1054.624
20
269.271
30
0.0
11
1055.654
21
274.624
31
0.0
0
LINE
5
972
8
0-0
6
CONTINUOUS
62
  7
10
1055.654
20
274.624
30
0.0
11
1056.683
21
279.602
31
0.0
0
LINE
5
973
8
0-0
6
CONTINUOUS
62
  7
10
1056.683
20
279.602
30
0.0
11
1057.713
21
284.234
31
0.0
0
LINE
5
974
8
0-0
6
CONTINUOUS
62
  7
10
1057.713
20
284.234
30
0.0
11
1058.742
21
288.545
31
0.0
0
LINE
5
975
8
0-0
6
CONTINUOUS
62
  7
10
1058.742
20
288.545
30
0.0
11
1059.771
21
292.562
31
0.0
0
LINE
5
976
8
0-0
6
CONTINUOUS
62
  7
10
1059.771
20
292.562
30
0.0
11
1060.801
21
296.308
31
0.0
0
LINE
5
977
8
0-0
6
CONTINUOUS
62
  7
10
1060.801
20
296.308
30
0.0
11
1061.830
21
299.806
31
0.0
0
LINE
5
978
8
0-0
6
CONTINUOUS
62
  7
10
1061.830
20
299.806
30
0.0
11
1062.860
21
303.078
31
0.0
0
LINE
5
979
8
0-0
6
CONTINUOUS
62
  7
10
1062.860
20
303.078
30
0.0
11
1063.889
21
306.143
31
0.0
0
LINE
5
97a
8
0-0
6
CONTINUOUS
62
  7
10
1063.889
20
306.143
30
0.0
11
1064.918
21
309.020
31
0.0
0
LINE
5
97b
8
0-0
6
CONTINUOUS
62
  7
10
1064.918
20
309.020
30
0.0
11
1065.948
21
311.727
31
0.0
0
LINE
5
97c
8
0-0
6
CONTINUOUS
62
  7
10
1065.948
20
311.727
30
0.0
11
1066.977
21
314.278
31
0.0
0
LINE
5
97d
8
0-0
6
CONTINUOUS
62
  7
10
1066.977
20
314.278
30
0.0
11
1068.007
21
316.690
31
0.0
0
LINE
5
97e
8
0-0
6
CONTINUOUS
62
  7
10
1068.007
20
316.690
30
0.0
11
1069.036
21
318.975
31
0.0
0
LINE
5
97f
8
0-0
6
CONTINUOUS
62
  7
10
1069.036
20
318.975
30
0.0
11
1070.065
21
321.146
31
0.0
0
LINE
5
980
8
0-0
6
CONTINUOUS
62
  7
10
1070.065
20
321.146
30
0.0
11
1071.095
21
323.213
31
0.0
0
LINE
5
981
8
0-0
6
CONTINUOUS
62
  7
10
1071.095
20
323.213
30
0.0
11
1072.124
21
325.186
31
0.0
0
LINE
5
982
8
0-0
6
CONTINUOUS
62
  7
10
1072.124
20
325.186
30
0.0
11
1073.154
21
327.074
31
0.0
0
LINE
5
983
8
0-0
6
CONTINUOUS
62
  7
10
1073.154
20
327.074
30
0.0
11
1074.183
21
328.885
31
0.0
0
LINE
5
984
8
0-0
6
CONTINUOUS
62
  7
10
1074.183
20
328.885
30
0.0
11
1075.213
21
330.624
31
0.0
0
LINE
5
985
8
0-0
6
CONTINUOUS
62
  7
10
1075.213
20
330.624
30
0.0
11
1076.242
21
332.298
31
0.0
0
LINE
5
986
8
0-0
6
CONTINUOUS
62
  7
10
1076.242
20
332.298
30
0.0
11
1077.271
21
333.911
31
0.0
0
LINE
5
987
8
0-0
6
CONTINUOUS
62
  7
10
1077.271
20
333.911
30
0.0
11
1078.301
21
335.468
31
0.0
0
LINE
5
988
8
0-0
6
CONTINUOUS
62
  7
10
1078.301
20
335.468
30
0.0
11
1079.330
21
336.970
31
0.0
0
LINE
5
989
8
0-0
6
CONTINUOUS
62
  7
10
1079.330
20
336.970
30
0.0
11
1080.360
21
338.423
31
0.0
0
LINE
5
98a
8
0-0
6
CONTINUOUS
62
  7
10
1080.360
20
338.423
30
0.0
11
1081.389
21
339.826
31
0.0
0
LINE
5
98b
8
0-0
6
CONTINUOUS
62
  7
10
1081.389
20
339.826
30
0.0
11
1082.418
21
341.184
31
0.0
0
LINE
5
98c
8
0-0
6
CONTINUOUS
62
  7
10
1082.418
20
341.184
30
0.0
11
1083.448
21
342.498
31
0.0
0
LINE
5
98d
8
0-0
6
CONTINUOUS
62
  7
10
1083.448
20
342.498
30
0.0
11
1084.477
21
343.771
31
0.0
0
LINE
5
98e
8
0-0
6
CONTINUOUS
62
  7
10
1084.477
20
343.771
30
0.0
11
1085.507
21
345.004
31
0.0
0
LINE
5
98f
8
0-0
6
CONTINUOUS
62
  7
10
1179.730
20
389.648
30
0.0
11
1173.972
21
388.619
31
0.0
0
LINE
5
990
8
0-0
6
CONTINUOUS
62
  7
10
1173.972
20
388.619
30
0.0
11
1168.619
21
387.589
31
0.0
0
LINE
5
991
8
0-0
6
CONTINUOUS
62
  7
10
1168.619
20
387.589
30
0.0
11
1163.641
21
386.560
31
0.0
0
LINE
5
992
8
0-0
6
CONTINUOUS
62
  7
10
1163.641
20
386.560
30
0.0
11
1159.010
21
385.531
31
0.0
0
LINE
5
993
8
0-0
6
CONTINUOUS
62
  7
10
1159.010
20
385.531
30
0.0
11
1154.698
21
384.501
31
0.0
0
LINE
5
994
8
0-0
6
CONTINUOUS
62
  7
10
1154.698
20
384.501
30
0.0
11
1150.682
21
383.472
31
0.0
0
LINE
5
995
8
0-0
6
CONTINUOUS
62
  7
10
1150.682
20
383.472
30
0.0
11
1146.936
21
382.443
31
0.0
0
LINE
5
996
8
0-0
6
CONTINUOUS
62
  7
10
1146.936
20
382.443
30
0.0
11
1143.437
21
381.413
31
0.0
0
LINE
5
997
8
0-0
6
CONTINUOUS
62
  7
10
1143.437
20
381.413
30
0.0
11
1140.165
21
380.384
31
0.0
0
LINE
5
998
8
0-0
6
CONTINUOUS
62
  7
10
1140.165
20
380.384
30
0.0
11
1137.100
21
379.354
31
0.0
0
LINE
5
999
8
0-0
6
CONTINUOUS
62
  7
10
1137.100
20
379.354
30
0.0
11
1134.223
21
378.325
31
0.0
0
LINE
5
99a
8
0-0
6
CONTINUOUS
62
  7
10
1134.223
20
378.325
30
0.0
11
1131.516
21
377.295
31
0.0
0
LINE
5
99b
8
0-0
6
CONTINUOUS
62
  7
10
1131.516
20
377.295
30
0.0
11
1128.965
21
376.266
31
0.0
0
LINE
5
99c
8
0-0
6
CONTINUOUS
62
  7
10
1128.965
20
376.266
30
0.0
11
1126.553
21
375.237
31
0.0
0
LINE
5
99d
8
0-0
6
CONTINUOUS
62
  7
10
1126.553
20
375.237
30
0.0
11
1124.268
21
374.207
31
0.0
0
LINE
5
99e
8
0-0
6
CONTINUOUS
62
  7
10
1124.268
20
374.207
30
0.0
11
1122.098
21
373.178
31
0.0
0
LINE
5
99f
8
0-0
6
CONTINUOUS
62
  7
10
1122.098
20
373.178
30
0.0
11
1120.031
21
372.148
31
0.0
0
LINE
5
9a0
8
0-0
6
CONTINUOUS
62
  7
10
1120.031
20
372.148
30
0.0
11
1118.057
21
371.119
31
0.0
0
LINE
5
9a1
8
0-0
6
CONTINUOUS
62
  7
10
1118.057
20
371.119
30
0.0
11
1116.169
21
370.090
31
0.0
0
LINE
5
9a2
8
0-0
6
CONTINUOUS
62
  7
10
1116.169
20
370.090
30
0.0
11
1114.359
21
369.060
31
0.0
0
LINE
5
9a3
8
0-0
6
CONTINUOUS
62
  7
10
1114.359
20
369.060
30
0.0
11
1112.619
21
368.031
31
0.0
0
LINE
5
9a4
8
0-0
6
CONTINUOUS
62
  7
10
1112.619
20
368.031
30
0.0
11
1110.945
21
367.001
31
0.0
0
LINE
5
9a5
8
0-0
6
CONTINUOUS
62
  7
10
1110.945
20
367.001
30
0.0
11
1109.332
21
365.972
31
0.0
0
LINE
5
9a6
8
0-0
6
CONTINUOUS
62
  7
10
1109.332
20
365.972
30
0.0
11
1107.776
21
364.942
31
0.0
0
LINE
5
9a7
8
0-0
6
CONTINUOUS
62
  7
10
1107.776
20
364.942
30
0.0
11
1106.273
21
363.913
31
0.0
0
LINE
5
9a8
8
0-0
6
CONTINUOUS
62
  7
10
1106.273
20
363.913
30
0.0
11
1104.821
21
362.884
31
0.0
0
LINE
5
9a9
8
0-0
6
CONTINUOUS
62
  7
10
1104.821
20
362.884
30
0.0
11
1103.417
21
361.854
31
0.0
0
LINE
5
9aa
8
0-0
6
CONTINUOUS
62
  7
10
1103.417
20
361.854
30
0.0
11
1102.059
21
360.825
31
0.0
0
LINE
5
9ab
8
0-0
6
CONTINUOUS
62
  7
10
1102.059
20
360.825
30
0.0
11
1100.745
21
359.795
31
0.0
0
LINE
5
9ac
8
0-0
6
CONTINUOUS
62
  7
10
1100.745
20
359.795
30
0.0
11
1099.473
21
358.766
31
0.0
0
LINE
5
9ad
8
0-0
6
CONTINUOUS
62
  7
10
1099.473
20
358.766
30
0.0
11
1098.239
21
357.737
31
0.0
0
LINE
5
9ae
8
0-0
6
CONTINUOUS
62
  7
10
1035.730
20
263.514
30
0.0
11
1053.595
21
263.514
31
0.0
0
LINE
5
9af
8
0-0
6
CONTINUOUS
62
  7
10
1179.730
20
403.513
30
0.0
11
1179.730
21
389.648
31
0.0
0
LINE
5
9b0
8
0-0
6
CONTINUOUS
62
  7
10
1039.730
20
263.514
30
0.0
11
1035.730
21
263.514
31
0.0
0
LINE
5
9b1
8
0-0
6
CONTINUOUS
62
  7
10
1166.730
20
413.514
30
0.0
11
1050.943
21
413.514
31
0.0
0
LINE
5
9b2
8
0-0
6
CONTINUOUS
62
  7
10
1029.730
20
393.514
30
0.0
11
1029.730
21
276.514
31
0.0
0
LINE
5
9b3
8
ADD_LINE
6
HIDDEN
62
  3
10
1179.730
20
897.703
30
0.0
11
1191.484
21
897.703
31
0.0
0
LINE
5
9b4
8
ADD_LINE
6
HIDDEN
62
  3
10
1179.730
20
897.703
30
0.0
11
1179.730
21
885.760
31
0.0
0
LINE
5
9b5
8
0-2
6
CONTINUOUS
62
  7
10
617.892
20
1382.432
30
0.0
11
741.892
21
1382.432
31
0.0
0
LINE
5
9b6
8
0-2
6
CONTINUOUS
62
  7
10
617.892
20
1285.135
30
0.0
11
617.892
21
1382.432
31
0.0
0
LINE
5
9b7
8
0-2
6
CONTINUOUS
62
  7
10
741.892
20
1285.135
30
0.0
11
741.892
21
1382.432
31
0.0
0
LINE
5
9b8
8
0-2
6
CONTINUOUS
62
  7
10
1055.730
20
1382.432
30
0.0
11
1179.730
21
1382.432
31
0.0
0
LINE
5
9b9
8
0-2
6
CONTINUOUS
62
  7
10
1055.730
20
1285.135
30
0.0
11
1055.730
21
1382.432
31
0.0
0
LINE
5
9ba
8
0-2
6
CONTINUOUS
62
  7
10
1179.730
20
1285.135
30
0.0
11
1179.730
21
1382.432
31
0.0
0
LINE
5
9bb
8
0-2
6
CONTINUOUS
62
  7
10
591.892
20
782.432
30
0.0
11
741.892
21
782.432
31
0.0
0
LINE
5
9bc
8
0-2
6
CONTINUOUS
62
  7
10
591.892
20
855.405
30
0.0
11
591.892
21
782.432
31
0.0
0
LINE
5
9bd
8
0-2
6
CONTINUOUS
62
  7
10
741.892
20
855.405
30
0.0
11
741.892
21
782.432
31
0.0
0
LINE
5
9be
8
0-2
6
CONTINUOUS
62
  7
10
1029.730
20
782.432
30
0.0
11
1179.730
21
782.432
31
0.0
0
LINE
5
9bf
8
0-2
6
CONTINUOUS
62
  7
10
1029.730
20
855.405
30
0.0
11
1029.730
21
782.432
31
0.0
0
LINE
5
9c0
8
0-2
6
CONTINUOUS
62
  7
10
1179.730
20
855.405
30
0.0
11
1179.730
21
782.432
31
0.0
0
LINE
5
9c1
8
0-2
6
CONTINUOUS
62
  7
10
1029.730
20
482.432
30
0.0
11
1179.730
21
482.432
31
0.0
0
LINE
5
9c2
8
0-2
6
CONTINUOUS
62
  7
10
1029.730
20
433.784
30
0.0
11
1029.730
21
482.432
31
0.0
0
LINE
5
9c3
8
0-2
6
CONTINUOUS
62
  7
10
1179.730
20
433.784
30
0.0
11
1179.730
21
482.432
31
0.0
0
LINE
5
9c4
8
0-2
6
CONTINUOUS
62
  7
10
1447.297
20
1252.703
30
0.0
11
1447.297
21
897.703
31
0.0
0
LINE
5
9c5
8
0-2
6
CONTINUOUS
62
  7
10
1256.757
20
1252.703
30
0.0
11
1447.297
21
1252.703
31
0.0
0
LINE
5
9c6
8
0-2
6
CONTINUOUS
62
  7
10
1256.757
20
897.703
30
0.0
11
1447.297
21
897.703
31
0.0
0
LINE
5
9c7
8
0-2
6
CONTINUOUS
62
  7
10
1447.297
20
413.514
30
0.0
11
1447.297
21
263.514
31
0.0
0
LINE
5
9c8
8
0-2
6
CONTINUOUS
62
  7
10
1256.757
20
413.514
30
0.0
11
1447.297
21
413.514
31
0.0
0
LINE
5
9c9
8
0-2
6
CONTINUOUS
62
  7
10
1256.757
20
263.514
30
0.0
11
1447.297
21
263.514
31
0.0
0
LINE
5
9ca
8
0-0
6
CONTINUOUS
62
  7
10
741.892
20
1252.703
30
0.0
11
741.892
21
1232.703
31
0.0
0
LINE
5
9cb
8
0-0
6
CONTINUOUS
62
  7
10
741.892
20
1227.703
30
0.0
11
741.892
21
923.272
31
0.0
0
LINE
5
9cc
8
0-0
6
CONTINUOUS
62
  7
10
741.892
20
1232.703
30
0.0
11
628.846
21
1232.703
31
0.0
0
LINE
5
9cd
8
0-0
6
CONTINUOUS
62
  7
10
741.892
20
1227.703
30
0.0
11
628.846
21
1227.703
31
0.0
0
ARC
5
9ce
8
0-0
6
CONTINUOUS
62
  7
10
1209.719
20
922.679
30
0.0
40
42.989
50
179.968582
51
215.520584
0
ARC
5
9cf
8
0-0
6
CONTINUOUS
62
  7
10
1045.417
20
923.301
30
0.0
40
13.776
50
175.524200
51
187.296066
0
ARC
5
9d0
8
0-0
6
CONTINUOUS
62
  7
10
1055.500
20
1230.203
30
0.0
40
2.500
50
270.000000
51
90.000000
0
ARC
5
9d1
8
0-0
6
CONTINUOUS
62
  7
10
1167.366
20
1230.203
30
0.0
40
2.500
50
270.345917
51
90.351593
0
CIRCLE
5
9d2
8
0-0
6
CONTINUOUS
62
  7
10
1094.958
20
1240.703
30
0.0
40
3.000
0
ARC
5
9d3
8
0-0
6
CONTINUOUS
62
  7
10
544.842
20
932.690
30
0.0
40
62.716
50
326.091522
51
350.836914
0
ARC
5
9d4
8
0-0
6
CONTINUOUS
62
  7
10
737.914
20
923.140
30
0.0
40
3.980
50
342.448425
51
1.899689
0
CIRCLE
5
9d5
8
0-0
6
CONTINUOUS
62
  7
10
701.892
20
1240.703
30
0.0
40
3.000
0
CIRCLE
5
9d6
8
0-0
6
CONTINUOUS
62
  7
10
666.334
20
1092.703
30
0.0
40
3.000
0
CIRCLE
5
9d7
8
0-0
6
CONTINUOUS
62
  7
10
664.137
20
1062.703
30
0.0
40
3.000
0
ARC
5
9d8
8
0-0
6
CONTINUOUS
62
  7
10
1050.336
20
392.907
30
0.0
40
20.615
50
181.687378
51
181.687546
0
ARC
5
9d9
8
0-0
6
CONTINUOUS
62
  7
10
1050.336
20
392.907
30
0.0
40
20.615
50
448.312439
51
538.312622
0
ARC
5
9da
8
0-0
6
CONTINUOUS
62
  7
10
1050.336
20
680.745
30
0.0
40
20.615
50
181.687378
51
181.687546
0
ARC
5
9db
8
0-0
6
CONTINUOUS
62
  7
10
1050.336
20
680.745
30
0.0
40
20.615
50
448.312439
51
538.312622
0
ARC
5
9dc
8
0-0
6
CONTINUOUS
62
  7
10
1058.113
20
672.968
30
0.0
40
13.405
50
453.243835
51
183.244919
0
ARC
5
9dd
8
0-0
6
CONTINUOUS
62
  7
10
1132.149
20
311.095
30
0.0
40
57.666
50
126.018112
51
143.982239
0
ARC
5
9de
8
0-0
6
CONTINUOUS
62
  7
10
1115.289
20
1175.312
30
0.0
40
770.498
50
265.202423
51
274.797607
0
ARC
5
9df
8
0-0
6
CONTINUOUS
62
  7
10
1050.336
20
392.907
30
0.0
40
14.615
50
447.994507
51
182.006210
0
ARC
5
9e0
8
0-0
6
CONTINUOUS
62
  7
10
267.932
20
327.955
30
0.0
40
770.498
50
355.202393
51
364.797546
0
CIRCLE
5
9e1
8
ADD_LINE
6
HIDDEN
62
  3
10
1179.730
20
897.703
30
0.0
40
3.000
0
ARC
5
9e2
8
0-2
6
CONTINUOUS
62
  7
10
739.392
20
1230.203
30
0.0
40
2.500
50
90.000000
51
270.000000
0
ARC
5
9e3
8
0-2
6
CONTINUOUS
62
  7
10
628.846
20
1230.203
30
0.0
40
2.500
50
90.000000
51
270.000000
0
TEXT
5
9e4
100
AcDbEntity
8
0-2
62
7
100
AcDbText
10
670.517
20
1384.932
30
0.0
40
9.750
41
0.800
50
0.000
1
124
100
AcDbText
0
TEXT
5
9e5
100
AcDbEntity
8
0-2
62
7
100
AcDbText
10
1108.355
20
1384.932
30
0.0
40
9.750
41
0.800
50
0.000
1
124
100
AcDbText
0
TEXT
5
9e6
100
AcDbEntity
8
0-2
62
7
100
AcDbText
10
657.517
20
784.932
30
0.0
40
9.750
41
0.800
50
0.000
1
150
100
AcDbText
0
TEXT
5
9e7
100
AcDbEntity
8
0-2
62
7
100
AcDbText
10
1095.355
20
784.932
30
0.0
40
9.750
41
0.800
50
0.000
1
150
100
AcDbText
0
TEXT
5
9e8
100
AcDbEntity
8
0-2
62
7
100
AcDbText
10
1095.355
20
484.932
30
0.0
40
9.750
41
0.800
50
0.000
1
150
100
AcDbText
0
TEXT
5
9e9
100
AcDbEntity
8
0-2
62
7
100
AcDbText
10
1444.797
20
1065.828
30
0.0
40
9.750
41
0.800
50
90.000
1
355
100
AcDbText
0
TEXT
5
9ea
100
AcDbEntity
8
0-2
62
7
100
AcDbText
10
1444.797
20
329.139
30
0.0
40
9.750
41
0.800
50
90.000
1
150
100
AcDbText
0
POINT
5
9eb
8
0-2
62
  7
10
617.892
20
1382.432
30
0.0
0
POINT
5
9ec
8
0-2
62
  7
10
741.892
20
1382.432
30
0.0
0
POINT
5
9ed
8
0-2
62
  7
10
1055.730
20
1382.432
30
0.0
0
POINT
5
9ee
8
0-2
62
  7
10
1179.730
20
1382.432
30
0.0
0
POINT
5
9ef
8
0-2
62
  7
10
591.892
20
782.432
30
0.0
0
POINT
5
9f0
8
0-2
62
  7
10
741.892
20
782.432
30
0.0
0
POINT
5
9f1
8
0-2
62
  7
10
1029.730
20
782.432
30
0.0
0
POINT
5
9f2
8
0-2
62
  7
10
1179.730
20
782.432
30
0.0
0
POINT
5
9f3
8
0-2
62
  7
10
1029.730
20
482.432
30
0.0
0
POINT
5
9f4
8
0-2
62
  7
10
1179.730
20
482.432
30
0.0
0
POINT
5
9f5
8
0-2
62
  7
10
1447.297
20
1252.703
30
0.0
0
POINT
5
9f6
8
0-2
62
  7
10
1447.297
20
897.703
30
0.0
0
POINT
5
9f7
8
0-2
62
  7
10
1447.297
20
413.514
30
0.0
0
POINT
5
9f8
8
0-2
62
  7
10
1447.297
20
263.514
30
0.0
0
ENDSEC
0
EOF
