0
SECTION
2
HEADER
  9
$EXTMIN
10
0
20
0
30
0
  9
$EXTMAX
10
1548.422
20
1307.906
30
0
  9
$LTSCALE
40
5.000
  9
$DIMSCALE
40
5.000
  9
$PDMODE
70
0
  9
$PDSIZE
40
40
0
ENDSEC
0
SECTION
2
TABLES
0
TABLE
2
LTYPE
70
9
0
LTYPE
5
1f4
2
CONTINUOUS
70
0
3
実線
72
65
73
0
40
0.0
0
LTYPE
5
1f5
2
DOT
70
0
3
--  --  --  --  --  --  --  --     
72
65
73
2
40
5.000
49
1.000
49
-4.000
0
LTYPE
5
1f6
2
DASHED
70
0
3
----    ----    ----    ----    
72
65
73
2
40
5.000
49
2.000
49
-3.000
0
LTYPE
5
1f7
2
DASHED2
70
0
3
------  ------  ------  ------ 
72
65
73
2
40
10.000
49
4.000
49
-6.000
0
LTYPE
5
1f8
2
CENTER
70
0
3
----- - ----- - ----- - ----- - 
72
65
73
4
40
9.000
49
6.000
49
-1.000
49
1.000
49
-1.000
0
LTYPE
5
1f9
2
CENTER2
70
0
3
----------  --  ----------  -- 
72
65
73
4
40
18.000
49
12.000
49
-2.000
49
2.000
49
-2.000
0
LTYPE
5
1fa
2
PHANTOM
70
0
3
--- - - --- - - --- - - --- - -
72
65
73
6
40
10.000
49
5.000
49
-1.000
49
1.000
49
-1.000
49
1.000
49
-1.000
0
LTYPE
5
1fb
2
PHANTOM2
70
0
3
--------  -  -  --------  -  -
72
65
73
6
40
16.000
49
6.000
49
-2.000
49
2.000
49
-2.000
49
2.000
49
-2.000
0
LTYPE
5
1fc
2
HIDDEN
70
0
3
-   -   -   -   -   -   -   -   
72
65
73
2
40
2.500
49
0.500
49
-2.000
0
ENDTAB
0
TABLE
2
STYLE
70
1
0
STYLE
5
1fd
100
AcDbSymbolTableRecord
100
AcDbTextStyleTableRecord
2
STANDARD
70
0
40
0.0
41
1.0
50
0.0
71
0
42
0.0
3
txt.shx
4
extfont.shx
0
STYLE
5
1fe
100
AcDbSymbolTableRecord
100
AcDbTextStyleTableRecord
2
TATEGAKI
70
4
40
0.0
41
1.0
50
0.0
71
0
42
0.0
3
txt.shx
4
extfont.shx
0
STYLE
5
1ff
100
AcDbSymbolTableRecord
100
AcDbTextStyleTableRecord
2
MT
70
0
40
0.0
41
1.0
50
0.0
71
0
42
0.0
3
MS Mincho
4

0
STYLE
5
200
100
AcDbSymbolTableRecord
100
AcDbTextStyleTableRecord
2
TMT
70
4
40
0.0
41
1.0
50
0.0
71
0
42
0.0
3
@MS Mincho
4

0
ENDTAB
0
TABLE
2
LAYER
5
c6f
100
AcDbSymbolTable
70
10
0
LAYER
5
c70
100
AcDbSymbolTableRecord
100
AcDbLayerTableRecord
2
0
70
64
62
  7
  6
CONTINUOUS
0
LAYER
5
c71
100
AcDbSymbolTableRecord
100
AcDbLayerTableRecord
2
0-0
70
64
62
  7
  6
CONTINUOUS
0
LAYER
5
c72
100
AcDbSymbolTableRecord
100
AcDbLayerTableRecord
2
ADD_LINE
70
64
62
  -7
  6
CONTINUOUS
0
ENDTAB
0
ENDSEC
0
SECTION
2
ENTITIES
0
LINE
5
c73
8
ADD_LINE
6
HIDDEN
62
  3
10
810.811
20
683.649
30
0.0
11
1114.865
21
683.649
31
0.0
0
LINE
5
c74
8
0-0
6
CONTINUOUS
62
  7
10
874.865
20
948.649
30
0.0
11
1054.865
21
948.649
31
0.0
0
LINE
5
c75
8
0-0
6
CONTINUOUS
62
  7
10
874.865
20
948.649
30
0.0
11
874.865
21
708.649
31
0.0
0
LINE
5
c76
8
0-0
6
CONTINUOUS
62
  7
10
874.865
20
708.649
30
0.0
11
1054.865
21
708.649
31
0.0
0
LINE
5
c77
8
0-0
6
CONTINUOUS
62
  7
10
1054.865
20
948.649
30
0.0
11
1054.865
21
708.649
31
0.0
0
LINE
5
c78
8
0-0
6
CONTINUOUS
62
  7
10
874.865
20
660.649
30
0.0
11
1054.886
21
660.649
31
0.0
0
LINE
5
c79
8
0-0
6
CONTINUOUS
62
  7
10
886.865
20
938.649
30
0.0
11
886.865
21
933.649
31
0.0
0
LINE
5
c7a
8
0-0
6
CONTINUOUS
62
  7
10
886.865
20
933.649
30
0.0
11
1042.865
21
933.649
31
0.0
0
LINE
5
c7b
8
0-0
6
CONTINUOUS
62
  7
10
886.865
20
938.649
30
0.0
11
1042.865
21
938.649
31
0.0
0
LINE
5
c7c
8
0-0
6
CONTINUOUS
62
  7
10
1042.865
20
938.649
30
0.0
11
1042.865
21
933.649
31
0.0
0
LINE
5
c7d
8
ADD_LINE
6
HIDDEN
62
  3
10
818.919
20
1179.730
30
0.0
11
1098.649
21
1179.730
31
0.0
0
LINE
5
c7e
8
0-0
6
CONTINUOUS
62
  7
10
874.865
20
1179.730
30
0.0
11
892.371
21
1173.730
31
0.0
0
LINE
5
c7f
8
0-0
6
CONTINUOUS
62
  7
10
1037.359
20
1173.730
30
0.0
11
1054.865
21
1179.730
31
0.0
0
LINE
5
c80
8
ADD_LINE
6
HIDDEN
62
  3
10
822.973
20
433.784
30
0.0
11
1102.703
21
433.784
31
0.0
0
LINE
5
c81
8
ADD_LINE
6
HIDDEN
62
  3
10
818.919
20
433.784
30
0.0
11
1098.649
21
433.784
31
0.0
0
LINE
5
c82
8
0-0
6
CONTINUOUS
62
  7
10
874.865
20
433.784
30
0.0
11
892.371
21
439.784
31
0.0
0
LINE
5
c83
8
0-0
6
CONTINUOUS
62
  7
10
1037.359
20
439.784
30
0.0
11
1054.865
21
433.784
31
0.0
0
LINE
5
c84
8
0-0
6
CONTINUOUS
62
  7
10
850.671
20
433.784
30
0.0
11
874.865
21
433.784
31
0.0
0
LINE
5
c85
8
0-0
6
CONTINUOUS
62
  7
10
1054.865
20
433.784
30
0.0
11
1079.059
21
433.784
31
0.0
0
LINE
5
c86
8
ADD_LINE
6
HIDDEN
62
  3
10
964.865
20
1277.027
30
0.0
11
964.865
21
377.027
31
0.0
0
LINE
5
c87
8
0-0
6
CONTINUOUS
62
  7
10
1320.649
20
660.649
30
0.0
11
1398.649
21
660.649
31
0.0
0
LINE
5
c88
8
0-0
6
CONTINUOUS
62
  7
10
1320.649
20
708.649
30
0.0
11
1398.649
21
708.649
31
0.0
0
LINE
5
c89
8
0-0
6
CONTINUOUS
62
  7
10
1320.649
20
948.649
30
0.0
11
1398.649
21
948.649
31
0.0
0
LINE
5
c8a
8
0-0
6
CONTINUOUS
62
  7
10
1398.649
20
948.649
30
0.0
11
1398.649
21
708.649
31
0.0
0
LINE
5
c8b
8
0-0
6
CONTINUOUS
62
  7
10
1325.649
20
938.649
30
0.0
11
1325.649
21
933.649
31
0.0
0
LINE
5
c8c
8
0-0
6
CONTINUOUS
62
  7
10
1320.649
20
948.649
30
0.0
11
1320.649
21
938.649
31
0.0
0
LINE
5
c8d
8
0-0
6
CONTINUOUS
62
  7
10
1320.649
20
933.649
30
0.0
11
1320.649
21
708.649
31
0.0
0
LINE
5
c8e
8
0-0
6
CONTINUOUS
62
  7
10
1320.649
20
933.649
30
0.0
11
1382.204
21
933.649
31
0.0
0
LINE
5
c8f
8
0-0
6
CONTINUOUS
62
  7
10
1320.649
20
938.649
30
0.0
11
1382.204
21
938.649
31
0.0
0
LINE
5
c90
8
ADD_LINE
6
HIDDEN
62
  3
10
1248.649
20
683.649
30
0.0
11
1435.135
21
683.649
31
0.0
0
LINE
5
c91
8
0-0
6
CONTINUOUS
62
  7
10
874.865
20
1305.406
30
0.0
11
1054.865
21
1305.406
31
0.0
0
LINE
5
c92
8
0-0
6
CONTINUOUS
62
  7
10
874.865
20
1200.000
30
0.0
11
874.865
21
1305.406
31
0.0
0
LINE
5
c93
8
0-0
6
CONTINUOUS
62
  7
10
1054.865
20
1200.000
30
0.0
11
1054.865
21
1305.406
31
0.0
0
LINE
5
c94
8
0-0
6
CONTINUOUS
62
  7
10
874.865
20
1017.568
30
0.0
11
1054.865
21
1017.568
31
0.0
0
LINE
5
c95
8
0-0
6
CONTINUOUS
62
  7
10
874.865
20
968.919
30
0.0
11
874.865
21
1017.568
31
0.0
0
LINE
5
c96
8
0-0
6
CONTINUOUS
62
  7
10
1054.865
20
968.919
30
0.0
11
1054.865
21
1017.568
31
0.0
0
LINE
5
c97
8
0-0
6
CONTINUOUS
62
  7
10
850.865
20
590.526
30
0.0
11
1078.865
21
590.526
31
0.0
0
LINE
5
c98
8
0-0
6
CONTINUOUS
62
  7
10
850.865
20
631.810
30
0.0
11
850.865
21
590.526
31
0.0
0
LINE
5
c99
8
0-0
6
CONTINUOUS
62
  7
10
1078.865
20
631.810
30
0.0
11
1078.865
21
590.526
31
0.0
0
LINE
5
c9a
8
0-0
6
CONTINUOUS
62
  7
10
850.671
20
316.400
30
0.0
11
874.865
21
316.400
31
0.0
0
LINE
5
c9b
8
0-0
6
CONTINUOUS
62
  7
10
850.671
20
392.363
30
0.0
11
850.671
21
316.400
31
0.0
0
LINE
5
c9c
8
0-0
6
CONTINUOUS
62
  7
10
874.865
20
392.363
30
0.0
11
874.865
21
316.400
31
0.0
0
LINE
5
c9d
8
0-0
6
CONTINUOUS
62
  7
10
874.865
20
316.400
30
0.0
11
1054.865
21
316.400
31
0.0
0
LINE
5
c9e
8
0-0
6
CONTINUOUS
62
  7
10
1054.865
20
392.363
30
0.0
11
1054.865
21
316.400
31
0.0
0
LINE
5
c9f
8
0-0
6
CONTINUOUS
62
  7
10
1054.865
20
316.400
30
0.0
11
1079.059
21
316.400
31
0.0
0
LINE
5
ca0
8
0-0
6
CONTINUOUS
62
  7
10
1079.059
20
392.363
30
0.0
11
1079.059
21
316.400
31
0.0
0
LINE
5
ca1
8
0-0
6
CONTINUOUS
62
  7
10
1320.649
20
1017.568
30
0.0
11
1398.649
21
1017.568
31
0.0
0
LINE
5
ca2
8
0-0
6
CONTINUOUS
62
  7
10
1320.649
20
968.919
30
0.0
11
1320.649
21
1017.568
31
0.0
0
LINE
5
ca3
8
0-0
6
CONTINUOUS
62
  7
10
1398.649
20
968.919
30
0.0
11
1398.649
21
1017.568
31
0.0
0
LINE
5
ca4
8
0-0
6
CONTINUOUS
62
  7
10
608.108
20
1179.730
30
0.0
11
608.108
21
1101.730
31
0.0
0
LINE
5
ca5
8
0-0
6
CONTINUOUS
62
  7
10
810.811
20
1179.730
30
0.0
11
608.108
21
1179.730
31
0.0
0
LINE
5
ca6
8
0-0
6
CONTINUOUS
62
  7
10
810.811
20
1101.730
30
0.0
11
608.108
21
1101.730
31
0.0
0
LINE
5
ca7
8
0-0
6
CONTINUOUS
62
  7
10
608.108
20
948.649
30
0.0
11
608.108
21
660.649
31
0.0
0
LINE
5
ca8
8
0-0
6
CONTINUOUS
62
  7
10
810.811
20
948.649
30
0.0
11
608.108
21
948.649
31
0.0
0
LINE
5
ca9
8
0-0
6
CONTINUOUS
62
  7
10
810.811
20
660.649
30
0.0
11
608.108
21
660.649
31
0.0
0
LINE
5
caa
8
0-0
6
CONTINUOUS
62
  7
10
608.108
20
535.784
30
0.0
11
608.108
21
433.784
31
0.0
0
LINE
5
cab
8
0-0
6
CONTINUOUS
62
  7
10
810.811
20
535.784
30
0.0
11
608.108
21
535.784
31
0.0
0
LINE
5
cac
8
0-0
6
CONTINUOUS
62
  7
10
810.811
20
433.784
30
0.0
11
608.108
21
433.784
31
0.0
0
LINE
5
cad
8
0-0
6
CONTINUOUS
62
  7
10
1195.946
20
948.649
30
0.0
11
1195.946
21
683.649
31
0.0
0
LINE
5
cae
8
0-0
6
CONTINUOUS
62
  7
10
1114.865
20
948.649
30
0.0
11
1195.946
21
948.649
31
0.0
0
LINE
5
caf
8
0-0
6
CONTINUOUS
62
  7
10
1114.865
20
683.649
30
0.0
11
1195.946
21
683.649
31
0.0
0
LINE
5
cb0
8
0-0
6
CONTINUOUS
62
  7
10
1548.422
20
948.649
30
0.0
11
1548.422
21
683.649
31
0.0
0
LINE
5
cb1
8
0-0
6
CONTINUOUS
62
  7
10
1443.580
20
948.649
30
0.0
11
1548.422
21
948.649
31
0.0
0
LINE
5
cb2
8
0-0
6
CONTINUOUS
62
  7
10
1443.580
20
683.649
30
0.0
11
1548.422
21
683.649
31
0.0
0
ARC
5
cb3
8
0-0
6
CONTINUOUS
62
  7
10
874.844
20
684.649
30
0.0
40
24.000
50
89.950378
51
270.049622
0
ARC
5
cb4
8
0-0
6
CONTINUOUS
62
  7
10
1054.886
20
684.649
30
0.0
40
24.000
50
269.950073
51
90.049911
0
CIRCLE
5
cb5
8
0-0
6
CONTINUOUS
62
  7
10
949.865
20
783.649
30
0.0
40
3.000
0
CIRCLE
5
cb6
8
0-0
6
CONTINUOUS
62
  7
10
979.865
20
783.649
30
0.0
40
3.000
0
ARC
5
cb7
8
0-0
6
CONTINUOUS
62
  7
10
964.865
20
1192.653
30
0.0
40
90.923
50
188.171295
51
351.828735
0
ARC
5
cb8
8
0-0
6
CONTINUOUS
62
  7
10
964.865
20
1192.653
30
0.0
40
74.923
50
194.629547
51
345.370453
0
ARC
5
cb9
8
0-0
6
CONTINUOUS
62
  7
10
964.865
20
420.861
30
0.0
40
90.923
50
8.171280
51
171.828705
0
ARC
5
cba
8
0-0
6
CONTINUOUS
62
  7
10
964.865
20
420.861
30
0.0
40
74.923
50
14.629547
51
165.370453
0
ARC
5
cbb
8
0-0
6
CONTINUOUS
62
  7
10
964.865
20
420.861
30
0.0
40
114.923
50
6.456589
51
173.543396
0
CIRCLE
5
cbc
8
ADD_LINE
6
HIDDEN
62
  3
10
964.865
20
1179.730
30
0.0
40
3.000
0
CIRCLE
5
cbd
8
ADD_LINE
6
HIDDEN
62
  3
10
964.865
20
433.784
30
0.0
40
3.000
0
ARC
5
cbe
8
0-0
6
CONTINUOUS
62
  7
10
1320.628
20
684.649
30
0.0
40
24.000
50
89.950089
51
270.049927
0
ARC
5
cbf
8
0-0
6
CONTINUOUS
62
  7
10
1366.711
20
684.649
30
0.0
40
39.950
50
323.076416
51
36.923523
0
ARC
5
cc0
8
0-0
6
CONTINUOUS
62
  7
10
1382.148
20
936.149
30
0.0
40
2.501
50
271.275757
51
88.724258
0
TEXT
5
cc1
100
AcDbEntity
8
0-0
62
7
100
AcDbText
10
955.490
20
1307.906
30
0.0
40
9.750
41
0.800
50
0.000
1
180
100
AcDbText
0
TEXT
5
cc2
100
AcDbEntity
8
0-0
62
7
100
AcDbText
10
955.490
20
1020.068
30
0.0
40
9.750
41
0.800
50
0.000
1
180
100
AcDbText
0
TEXT
5
cc3
100
AcDbEntity
8
0-0
62
7
100
AcDbText
10
955.490
20
593.026
30
0.0
40
9.750
41
0.800
50
0.000
1
228
100
AcDbText
0
TEXT
5
cc4
100
AcDbEntity
8
0-0
62
7
100
AcDbText
10
856.518
20
318.900
30
0.0
40
9.750
41
0.800
50
0.000
1
24
100
AcDbText
0
TEXT
5
cc5
100
AcDbEntity
8
0-0
62
7
100
AcDbText
10
955.490
20
318.900
30
0.0
40
9.750
41
0.800
50
0.000
1
180
100
AcDbText
0
TEXT
5
cc6
100
AcDbEntity
8
0-0
62
7
100
AcDbText
10
1060.712
20
318.900
30
0.0
40
9.750
41
0.800
50
0.000
1
24
100
AcDbText
0
TEXT
5
cc7
100
AcDbEntity
8
0-0
62
7
100
AcDbText
10
1353.399
20
1020.068
30
0.0
40
9.750
41
0.800
50
0.000
1
78
100
AcDbText
0
TEXT
5
cc8
100
AcDbEntity
8
0-0
62
7
100
AcDbText
10
605.608
20
1134.480
30
0.0
40
9.750
41
0.800
50
90.000
1
78
100
AcDbText
0
TEXT
5
cc9
100
AcDbEntity
8
0-0
62
7
100
AcDbText
10
605.608
20
795.274
30
0.0
40
9.750
41
0.800
50
90.000
1
288
100
AcDbText
0
TEXT
5
cca
100
AcDbEntity
8
0-0
62
7
100
AcDbText
10
605.608
20
475.409
30
0.0
40
9.750
41
0.800
50
90.000
1
102
100
AcDbText
0
TEXT
5
ccb
100
AcDbEntity
8
0-0
62
7
100
AcDbText
10
1193.446
20
806.774
30
0.0
40
9.750
41
0.800
50
90.000
1
265
100
AcDbText
0
TEXT
5
ccc
100
AcDbEntity
8
0-0
62
7
100
AcDbText
10
1545.922
20
806.774
30
0.0
40
9.750
41
0.800
50
90.000
1
265
100
AcDbText
0
POINT
5
ccd
8
0-0
62
  7
10
874.865
20
1305.406
30
0.0
0
POINT
5
cce
8
0-0
62
  7
10
1054.865
20
1305.406
30
0.0
0
POINT
5
ccf
8
0-0
62
  7
10
874.865
20
1017.568
30
0.0
0
POINT
5
cd0
8
0-0
62
  7
10
1054.865
20
1017.568
30
0.0
0
POINT
5
cd1
8
0-0
62
  7
10
850.865
20
590.526
30
0.0
0
POINT
5
cd2
8
0-0
62
  7
10
1078.865
20
590.526
30
0.0
0
POINT
5
cd3
8
0-0
62
  7
10
850.671
20
316.400
30
0.0
0
POINT
5
cd4
8
0-0
62
  7
10
874.865
20
316.400
30
0.0
0
POINT
5
cd5
8
0-0
62
  7
10
1054.865
20
316.400
30
0.0
0
POINT
5
cd6
8
0-0
62
  7
10
1079.059
20
316.400
30
0.0
0
POINT
5
cd7
8
0-0
62
  7
10
1320.649
20
1017.568
30
0.0
0
POINT
5
cd8
8
0-0
62
  7
10
1398.649
20
1017.568
30
0.0
0
POINT
5
cd9
8
0-0
62
  7
10
608.108
20
1179.730
30
0.0
0
POINT
5
cda
8
0-0
62
  7
10
608.108
20
1101.730
30
0.0
0
POINT
5
cdb
8
0-0
62
  7
10
608.108
20
948.649
30
0.0
0
POINT
5
cdc
8
0-0
62
  7
10
608.108
20
660.649
30
0.0
0
POINT
5
cdd
8
0-0
62
  7
10
608.108
20
535.784
30
0.0
0
POINT
5
cde
8
0-0
62
  7
10
608.108
20
433.784
30
0.0
0
POINT
5
cdf
8
0-0
62
  7
10
1195.946
20
948.649
30
0.0
0
POINT
5
ce0
8
0-0
62
  7
10
1195.946
20
683.649
30
0.0
0
POINT
5
ce1
8
0-0
62
  7
10
1548.422
20
948.649
30
0.0
0
POINT
5
ce2
8
0-0
62
  7
10
1548.422
20
683.649
30
0.0
0
ENDSEC
0
EOF
