0
SECTION
2
HEADER
  9
$EXTMIN
10
0
20
0
30
0
  9
$EXTMAX
10
1409.392
20
1278.446
30
0
  9
$LTSCALE
40
5.000
  9
$DIMSCALE
40
5.000
  9
$PDMODE
70
0
  9
$PDSIZE
40
40
0
ENDSEC
0
SECTION
2
TABLES
0
TABLE
2
LTYPE
70
9
0
LTYPE
5
1f4
2
CONTINUOUS
70
0
3
実線
72
65
73
0
40
0.0
0
LTYPE
5
1f5
2
DOT
70
0
3
--  --  --  --  --  --  --  --     
72
65
73
2
40
5.000
49
1.000
49
-4.000
0
LTYPE
5
1f6
2
DASHED
70
0
3
----    ----    ----    ----    
72
65
73
2
40
5.000
49
2.000
49
-3.000
0
LTYPE
5
1f7
2
DASHED2
70
0
3
------  ------  ------  ------ 
72
65
73
2
40
10.000
49
4.000
49
-6.000
0
LTYPE
5
1f8
2
CENTER
70
0
3
----- - ----- - ----- - ----- - 
72
65
73
4
40
9.000
49
6.000
49
-1.000
49
1.000
49
-1.000
0
LTYPE
5
1f9
2
CENTER2
70
0
3
----------  --  ----------  -- 
72
65
73
4
40
18.000
49
12.000
49
-2.000
49
2.000
49
-2.000
0
LTYPE
5
1fa
2
PHANTOM
70
0
3
--- - - --- - - --- - - --- - -
72
65
73
6
40
10.000
49
5.000
49
-1.000
49
1.000
49
-1.000
49
1.000
49
-1.000
0
LTYPE
5
1fb
2
PHANTOM2
70
0
3
--------  -  -  --------  -  -
72
65
73
6
40
16.000
49
6.000
49
-2.000
49
2.000
49
-2.000
49
2.000
49
-2.000
0
LTYPE
5
1fc
2
HIDDEN
70
0
3
-   -   -   -   -   -   -   -   
72
65
73
2
40
2.500
49
0.500
49
-2.000
0
ENDTAB
0
TABLE
2
STYLE
70
1
0
STYLE
5
1fd
100
AcDbSymbolTableRecord
100
AcDbTextStyleTableRecord
2
STANDARD
70
0
40
0.0
41
1.0
50
0.0
71
0
42
0.0
3
txt.shx
4
extfont.shx
0
STYLE
5
1fe
100
AcDbSymbolTableRecord
100
AcDbTextStyleTableRecord
2
TATEGAKI
70
4
40
0.0
41
1.0
50
0.0
71
0
42
0.0
3
txt.shx
4
extfont.shx
0
STYLE
5
1ff
100
AcDbSymbolTableRecord
100
AcDbTextStyleTableRecord
2
MT
70
0
40
0.0
41
1.0
50
0.0
71
0
42
0.0
3
MS Mincho
4

0
STYLE
5
200
100
AcDbSymbolTableRecord
100
AcDbTextStyleTableRecord
2
TMT
70
4
40
0.0
41
1.0
50
0.0
71
0
42
0.0
3
@MS Mincho
4

0
ENDTAB
0
TABLE
2
LAYER
5
1d22
100
AcDbSymbolTable
70
10
0
LAYER
5
1d23
100
AcDbSymbolTableRecord
100
AcDbLayerTableRecord
2
0
70
64
62
  7
  6
CONTINUOUS
0
LAYER
5
1d24
100
AcDbSymbolTableRecord
100
AcDbLayerTableRecord
2
0-0
70
64
62
  7
  6
CONTINUOUS
0
LAYER
5
1d25
100
AcDbSymbolTableRecord
100
AcDbLayerTableRecord
2
ADD_LINE
70
64
62
  -7
  6
CONTINUOUS
0
ENDTAB
0
ENDSEC
0
SECTION
2
ENTITIES
0
LINE
5
1d26
8
0-0
6
CONTINUOUS
62
  7
10
905.338
20
827.838
30
0.0
11
1170.338
21
827.838
31
0.0
0
LINE
5
1d27
8
0-0
6
CONTINUOUS
62
  7
10
1173.338
20
1117.838
30
0.0
11
1170.338
21
827.838
31
0.0
0
LINE
5
1d28
8
0-0
6
CONTINUOUS
62
  7
10
905.338
20
1112.838
30
0.0
11
925.338
21
1112.838
31
0.0
0
LINE
5
1d29
8
0-0
6
CONTINUOUS
62
  7
10
925.338
20
1117.838
30
0.0
11
925.338
21
1112.838
31
0.0
0
LINE
5
1d2a
8
0-0
6
CONTINUOUS
62
  7
10
925.338
20
1117.838
30
0.0
11
1173.338
21
1117.838
31
0.0
0
LINE
5
1d2b
8
0-0
6
CONTINUOUS
62
  7
10
625.608
20
1112.838
30
0.0
11
530.608
21
1112.838
31
0.0
0
LINE
5
1d2c
8
0-0
6
CONTINUOUS
62
  7
10
530.608
20
1112.838
30
0.0
11
505.608
21
907.838
31
0.0
0
LINE
5
1d2d
8
0-0
6
CONTINUOUS
62
  7
10
625.608
20
827.838
30
0.0
11
584.608
21
827.838
31
0.0
0
LINE
5
1d2e
8
0-0
6
CONTINUOUS
62
  7
10
540.209
20
965.818
30
0.0
11
540.327
21
965.464
31
0.0
0
LINE
5
1d2f
8
0-0
6
CONTINUOUS
62
  7
10
587.716
20
907.141
30
0.0
11
587.575
21
906.430
31
0.0
0
LINE
5
1d30
8
0-0
6
CONTINUOUS
62
  7
10
587.575
20
906.430
30
0.0
11
587.556
21
905.776
31
0.0
0
LINE
5
1d31
8
0-0
6
CONTINUOUS
62
  7
10
587.556
20
905.776
30
0.0
11
587.661
21
905.182
31
0.0
0
LINE
5
1d32
8
0-0
6
CONTINUOUS
62
  7
10
587.661
20
905.182
30
0.0
11
587.757
21
904.932
31
0.0
0
LINE
5
1d33
8
0-0
6
CONTINUOUS
62
  7
10
587.757
20
904.932
30
0.0
11
587.918
21
904.663
31
0.0
0
LINE
5
1d34
8
0-0
6
CONTINUOUS
62
  7
10
587.918
20
904.663
30
0.0
11
588.386
21
904.169
31
0.0
0
LINE
5
1d35
8
0-0
6
CONTINUOUS
62
  7
10
588.386
20
904.169
30
0.0
11
589.018
21
903.739
31
0.0
0
LINE
5
1d36
8
0-0
6
CONTINUOUS
62
  7
10
589.018
20
903.739
30
0.0
11
589.806
21
903.362
31
0.0
0
LINE
5
1d37
8
0-0
6
CONTINUOUS
62
  7
10
589.806
20
903.362
30
0.0
11
590.289
21
903.181
31
0.0
0
LINE
5
1d38
8
0-0
6
CONTINUOUS
62
  7
10
590.289
20
903.181
30
0.0
11
590.857
21
903.006
31
0.0
0
LINE
5
1d39
8
0-0
6
CONTINUOUS
62
  7
10
590.857
20
903.006
30
0.0
11
591.847
21
902.798
31
0.0
0
LINE
5
1d3a
8
0-0
6
CONTINUOUS
62
  7
10
591.847
20
902.798
30
0.0
11
592.749
21
902.749
31
0.0
0
LINE
5
1d3b
8
0-0
6
CONTINUOUS
62
  7
10
592.749
20
902.749
30
0.0
11
593.548
21
902.870
31
0.0
0
LINE
5
1d3c
8
0-0
6
CONTINUOUS
62
  7
10
593.548
20
902.870
30
0.0
11
593.887
21
902.999
31
0.0
0
LINE
5
1d3d
8
0-0
6
CONTINUOUS
62
  7
10
593.887
20
902.999
30
0.0
11
594.310
21
903.267
31
0.0
0
LINE
5
1d3e
8
0-0
6
CONTINUOUS
62
  7
10
594.310
20
903.267
30
0.0
11
595.038
21
904.056
31
0.0
0
LINE
5
1d3f
8
0-0
6
CONTINUOUS
62
  7
10
595.038
20
904.056
30
0.0
11
595.643
21
905.125
31
0.0
0
LINE
5
1d40
8
0-0
6
CONTINUOUS
62
  7
10
595.643
20
905.125
30
0.0
11
596.132
21
906.393
31
0.0
0
LINE
5
1d41
8
0-0
6
CONTINUOUS
62
  7
10
596.132
20
906.393
30
0.0
11
596.354
21
907.145
31
0.0
0
LINE
5
1d42
8
0-0
6
CONTINUOUS
62
  7
10
596.354
20
907.145
30
0.0
11
596.531
21
907.866
31
0.0
0
LINE
5
1d43
8
0-0
6
CONTINUOUS
62
  7
10
596.531
20
907.866
30
0.0
11
596.760
21
909.104
31
0.0
0
LINE
5
1d44
8
0-0
6
CONTINUOUS
62
  7
10
596.760
20
909.104
30
0.0
11
596.896
21
910.321
31
0.0
0
LINE
5
1d45
8
0-0
6
CONTINUOUS
62
  7
10
596.896
20
910.321
30
0.0
11
596.954
21
911.555
31
0.0
0
LINE
5
1d46
8
0-0
6
CONTINUOUS
62
  7
10
596.954
20
911.555
30
0.0
11
596.957
21
912.279
31
0.0
0
LINE
5
1d47
8
0-0
6
CONTINUOUS
62
  7
10
596.957
20
912.279
30
0.0
11
596.952
21
912.585
31
0.0
0
LINE
5
1d48
8
0-0
6
CONTINUOUS
62
  7
10
596.952
20
912.585
30
0.0
11
596.927
21
913.113
31
0.0
0
LINE
5
1d49
8
0-0
6
CONTINUOUS
62
  7
10
596.927
20
913.113
30
0.0
11
596.874
21
913.609
31
0.0
0
LINE
5
1d4a
8
0-0
6
CONTINUOUS
62
  7
10
596.874
20
913.609
30
0.0
11
596.783
21
914.079
31
0.0
0
LINE
5
1d4b
8
0-0
6
CONTINUOUS
62
  7
10
596.783
20
914.079
30
0.0
11
596.714
21
914.318
31
0.0
0
LINE
5
1d4c
8
0-0
6
CONTINUOUS
62
  7
10
596.714
20
914.318
30
0.0
11
596.642
21
914.516
31
0.0
0
LINE
5
1d4d
8
0-0
6
CONTINUOUS
62
  7
10
596.642
20
914.516
30
0.0
11
596.472
21
914.898
31
0.0
0
LINE
5
1d4e
8
0-0
6
CONTINUOUS
62
  7
10
596.472
20
914.898
30
0.0
11
596.267
21
915.285
31
0.0
0
LINE
5
1d4f
8
0-0
6
CONTINUOUS
62
  7
10
596.267
20
915.285
30
0.0
11
596.032
21
915.693
31
0.0
0
LINE
5
1d50
8
0-0
6
CONTINUOUS
62
  7
10
596.032
20
915.693
30
0.0
11
595.898
21
915.919
31
0.0
0
LINE
5
1d51
8
0-0
6
CONTINUOUS
62
  7
10
595.898
20
915.919
30
0.0
11
595.758
21
916.157
31
0.0
0
LINE
5
1d52
8
0-0
6
CONTINUOUS
62
  7
10
595.758
20
916.157
30
0.0
11
595.530
21
916.541
31
0.0
0
LINE
5
1d53
8
0-0
6
CONTINUOUS
62
  7
10
595.530
20
916.541
30
0.0
11
595.308
21
916.895
31
0.0
0
LINE
5
1d54
8
0-0
6
CONTINUOUS
62
  7
10
595.308
20
916.895
30
0.0
11
595.079
21
917.226
31
0.0
0
LINE
5
1d55
8
0-0
6
CONTINUOUS
62
  7
10
595.079
20
917.226
30
0.0
11
594.949
21
917.396
31
0.0
0
LINE
5
1d56
8
0-0
6
CONTINUOUS
62
  7
10
594.949
20
917.396
30
0.0
11
594.803
21
917.570
31
0.0
0
LINE
5
1d57
8
0-0
6
CONTINUOUS
62
  7
10
594.803
20
917.570
30
0.0
11
594.519
21
917.872
31
0.0
0
LINE
5
1d58
8
0-0
6
CONTINUOUS
62
  7
10
594.519
20
917.872
30
0.0
11
594.212
21
918.158
31
0.0
0
LINE
5
1d59
8
0-0
6
CONTINUOUS
62
  7
10
594.212
20
918.158
30
0.0
11
593.878
21
918.436
31
0.0
0
LINE
5
1d5a
8
0-0
6
CONTINUOUS
62
  7
10
593.878
20
918.436
30
0.0
11
593.686
21
918.583
31
0.0
0
LINE
5
1d5b
8
0-0
6
CONTINUOUS
62
  7
10
593.686
20
918.583
30
0.0
11
593.230
21
918.903
31
0.0
0
LINE
5
1d5c
8
0-0
6
CONTINUOUS
62
  7
10
593.230
20
918.903
30
0.0
11
592.391
21
919.401
31
0.0
0
LINE
5
1d5d
8
0-0
6
CONTINUOUS
62
  7
10
592.391
20
919.401
30
0.0
11
591.522
21
919.805
31
0.0
0
LINE
5
1d5e
8
0-0
6
CONTINUOUS
62
  7
10
591.522
20
919.805
30
0.0
11
590.613
21
920.117
31
0.0
0
LINE
5
1d5f
8
0-0
6
CONTINUOUS
62
  7
10
590.613
20
920.117
30
0.0
11
590.087
21
920.248
31
0.0
0
LINE
5
1d60
8
0-0
6
CONTINUOUS
62
  7
10
590.087
20
920.248
30
0.0
11
589.810
21
920.303
31
0.0
0
LINE
5
1d61
8
0-0
6
CONTINUOUS
62
  7
10
589.810
20
920.303
30
0.0
11
589.292
21
920.387
31
0.0
0
LINE
5
1d62
8
0-0
6
CONTINUOUS
62
  7
10
589.292
20
920.387
30
0.0
11
588.744
21
920.465
31
0.0
0
LINE
5
1d63
8
0-0
6
CONTINUOUS
62
  7
10
588.744
20
920.465
30
0.0
11
588.184
21
920.548
31
0.0
0
LINE
5
1d64
8
0-0
6
CONTINUOUS
62
  7
10
588.184
20
920.548
30
0.0
11
587.842
21
920.606
31
0.0
0
LINE
5
1d65
8
0-0
6
CONTINUOUS
62
  7
10
587.842
20
920.606
30
0.0
11
587.465
21
920.680
31
0.0
0
LINE
5
1d66
8
0-0
6
CONTINUOUS
62
  7
10
587.465
20
920.680
30
0.0
11
586.855
21
920.812
31
0.0
0
LINE
5
1d67
8
0-0
6
CONTINUOUS
62
  7
10
586.855
20
920.812
30
0.0
11
586.271
21
920.935
31
0.0
0
LINE
5
1d68
8
0-0
6
CONTINUOUS
62
  7
10
586.271
20
920.935
30
0.0
11
585.714
21
921.029
31
0.0
0
LINE
5
1d69
8
0-0
6
CONTINUOUS
62
  7
10
585.714
20
921.029
30
0.0
11
585.414
21
921.062
31
0.0
0
LINE
5
1d6a
8
0-0
6
CONTINUOUS
62
  7
10
585.414
20
921.062
30
0.0
11
585.179
21
921.076
31
0.0
0
LINE
5
1d6b
8
0-0
6
CONTINUOUS
62
  7
10
585.179
20
921.076
30
0.0
11
584.734
21
921.079
31
0.0
0
LINE
5
1d6c
8
0-0
6
CONTINUOUS
62
  7
10
584.734
20
921.079
30
0.0
11
584.280
21
921.059
31
0.0
0
LINE
5
1d6d
8
0-0
6
CONTINUOUS
62
  7
10
584.280
20
921.059
30
0.0
11
583.800
21
921.022
31
0.0
0
LINE
5
1d6e
8
0-0
6
CONTINUOUS
62
  7
10
583.800
20
921.022
30
0.0
11
583.514
21
920.996
31
0.0
0
LINE
5
1d6f
8
0-0
6
CONTINUOUS
62
  7
10
583.514
20
920.996
30
0.0
11
583.230
21
920.969
31
0.0
0
LINE
5
1d70
8
0-0
6
CONTINUOUS
62
  7
10
583.230
20
920.969
30
0.0
11
582.744
21
920.913
31
0.0
0
LINE
5
1d71
8
0-0
6
CONTINUOUS
62
  7
10
582.744
20
920.913
30
0.0
11
582.300
21
920.839
31
0.0
0
LINE
5
1d72
8
0-0
6
CONTINUOUS
62
  7
10
582.300
20
920.839
30
0.0
11
581.886
21
920.734
31
0.0
0
LINE
5
1d73
8
0-0
6
CONTINUOUS
62
  7
10
581.886
20
920.734
30
0.0
11
581.696
21
920.668
31
0.0
0
LINE
5
1d74
8
0-0
6
CONTINUOUS
62
  7
10
581.696
20
920.668
30
0.0
11
581.395
21
920.530
31
0.0
0
LINE
5
1d75
8
0-0
6
CONTINUOUS
62
  7
10
581.395
20
920.530
30
0.0
11
580.849
21
920.186
31
0.0
0
LINE
5
1d76
8
0-0
6
CONTINUOUS
62
  7
10
580.849
20
920.186
30
0.0
11
580.319
21
919.747
31
0.0
0
LINE
5
1d77
8
0-0
6
CONTINUOUS
62
  7
10
580.319
20
919.747
30
0.0
11
579.784
21
919.224
31
0.0
0
LINE
5
1d78
8
0-0
6
CONTINUOUS
62
  7
10
579.784
20
919.224
30
0.0
11
579.477
21
918.903
31
0.0
0
LINE
5
1d79
8
0-0
6
CONTINUOUS
62
  7
10
579.477
20
918.903
30
0.0
11
579.030
21
918.422
31
0.0
0
LINE
5
1d7a
8
0-0
6
CONTINUOUS
62
  7
10
579.030
20
918.422
30
0.0
11
578.290
21
917.582
31
0.0
0
LINE
5
1d7b
8
0-0
6
CONTINUOUS
62
  7
10
578.290
20
917.582
30
0.0
11
577.600
21
916.732
31
0.0
0
LINE
5
1d7c
8
0-0
6
CONTINUOUS
62
  7
10
577.600
20
916.732
30
0.0
11
576.962
21
915.858
31
0.0
0
LINE
5
1d7d
8
0-0
6
CONTINUOUS
62
  7
10
576.962
20
915.858
30
0.0
11
576.623
21
915.344
31
0.0
0
LINE
5
1d7e
8
0-0
6
CONTINUOUS
62
  7
10
576.623
20
915.344
30
0.0
11
576.351
21
914.900
31
0.0
0
LINE
5
1d7f
8
0-0
6
CONTINUOUS
62
  7
10
576.351
20
914.900
30
0.0
11
575.893
21
914.096
31
0.0
0
LINE
5
1d80
8
0-0
6
CONTINUOUS
62
  7
10
575.893
20
914.096
30
0.0
11
575.442
21
913.268
31
0.0
0
LINE
5
1d81
8
0-0
6
CONTINUOUS
62
  7
10
575.442
20
913.268
30
0.0
11
574.969
21
912.406
31
0.0
0
LINE
5
1d82
8
0-0
6
CONTINUOUS
62
  7
10
574.969
20
912.406
30
0.0
11
574.685
21
911.908
31
0.0
0
LINE
5
1d83
8
0-0
6
CONTINUOUS
62
  7
10
574.685
20
911.908
30
0.0
11
574.346
21
911.341
31
0.0
0
LINE
5
1d84
8
0-0
6
CONTINUOUS
62
  7
10
574.346
20
911.341
30
0.0
11
573.763
21
910.392
31
0.0
0
LINE
5
1d85
8
0-0
6
CONTINUOUS
62
  7
10
573.763
20
910.392
30
0.0
11
573.219
21
909.466
31
0.0
0
LINE
5
1d86
8
0-0
6
CONTINUOUS
62
  7
10
573.219
20
909.466
30
0.0
11
572.748
21
908.542
31
0.0
0
LINE
5
1d87
8
0-0
6
CONTINUOUS
62
  7
10
572.748
20
908.542
30
0.0
11
572.527
21
908.015
31
0.0
0
LINE
5
1d88
8
0-0
6
CONTINUOUS
62
  7
10
572.527
20
908.015
30
0.0
11
572.383
21
907.601
31
0.0
0
LINE
5
1d89
8
0-0
6
CONTINUOUS
62
  7
10
572.383
20
907.601
30
0.0
11
572.175
21
906.833
31
0.0
0
LINE
5
1d8a
8
0-0
6
CONTINUOUS
62
  7
10
572.175
20
906.833
30
0.0
11
572.032
21
906.047
31
0.0
0
LINE
5
1d8b
8
0-0
6
CONTINUOUS
62
  7
10
572.032
20
906.047
30
0.0
11
571.946
21
905.240
31
0.0
0
LINE
5
1d8c
8
0-0
6
CONTINUOUS
62
  7
10
571.946
20
905.240
30
0.0
11
571.923
21
904.778
31
0.0
0
LINE
5
1d8d
8
0-0
6
CONTINUOUS
62
  7
10
571.923
20
904.778
30
0.0
11
571.917
21
904.310
31
0.0
0
LINE
5
1d8e
8
0-0
6
CONTINUOUS
62
  7
10
571.917
20
904.310
30
0.0
11
571.949
21
903.481
31
0.0
0
LINE
5
1d8f
8
0-0
6
CONTINUOUS
62
  7
10
571.949
20
903.481
30
0.0
11
572.029
21
902.656
31
0.0
0
LINE
5
1d90
8
0-0
6
CONTINUOUS
62
  7
10
572.029
20
902.656
30
0.0
11
572.154
21
901.819
31
0.0
0
LINE
5
1d91
8
0-0
6
CONTINUOUS
62
  7
10
572.154
20
901.819
30
0.0
11
572.245
21
901.337
31
0.0
0
LINE
5
1d92
8
0-0
6
CONTINUOUS
62
  7
10
572.245
20
901.337
30
0.0
11
572.315
21
901.004
31
0.0
0
LINE
5
1d93
8
0-0
6
CONTINUOUS
62
  7
10
572.315
20
901.004
30
0.0
11
572.458
21
900.435
31
0.0
0
LINE
5
1d94
8
0-0
6
CONTINUOUS
62
  7
10
572.458
20
900.435
30
0.0
11
572.629
21
899.914
31
0.0
0
LINE
5
1d95
8
0-0
6
CONTINUOUS
62
  7
10
572.629
20
899.914
30
0.0
11
572.841
21
899.430
31
0.0
0
LINE
5
1d96
8
0-0
6
CONTINUOUS
62
  7
10
572.841
20
899.430
30
0.0
11
572.973
21
899.197
31
0.0
0
LINE
5
1d97
8
0-0
6
CONTINUOUS
62
  7
10
572.973
20
899.197
30
0.0
11
573.137
21
898.956
31
0.0
0
LINE
5
1d98
8
0-0
6
CONTINUOUS
62
  7
10
573.137
20
898.956
30
0.0
11
573.503
21
898.523
31
0.0
0
LINE
5
1d99
8
0-0
6
CONTINUOUS
62
  7
10
573.503
20
898.523
30
0.0
11
573.932
21
898.109
31
0.0
0
LINE
5
1d9a
8
0-0
6
CONTINUOUS
62
  7
10
573.932
20
898.109
30
0.0
11
574.420
21
897.698
31
0.0
0
LINE
5
1d9b
8
0-0
6
CONTINUOUS
62
  7
10
574.420
20
897.698
30
0.0
11
574.714
21
897.465
31
0.0
0
LINE
5
1d9c
8
0-0
6
CONTINUOUS
62
  7
10
574.714
20
897.465
30
0.0
11
575.119
21
897.153
31
0.0
0
LINE
5
1d9d
8
0-0
6
CONTINUOUS
62
  7
10
575.119
20
897.153
30
0.0
11
575.831
21
896.631
31
0.0
0
LINE
5
1d9e
8
0-0
6
CONTINUOUS
62
  7
10
575.831
20
896.631
30
0.0
11
576.544
21
896.149
31
0.0
0
LINE
5
1d9f
8
0-0
6
CONTINUOUS
62
  7
10
576.544
20
896.149
30
0.0
11
577.274
21
895.700
31
0.0
0
LINE
5
1da0
8
0-0
6
CONTINUOUS
62
  7
10
577.274
20
895.700
30
0.0
11
577.698
21
895.464
31
0.0
0
LINE
5
1da1
8
0-0
6
CONTINUOUS
62
  7
10
577.698
20
895.464
30
0.0
11
577.975
21
895.319
31
0.0
0
LINE
5
1da2
8
0-0
6
CONTINUOUS
62
  7
10
577.975
20
895.319
30
0.0
11
578.479
21
895.072
31
0.0
0
LINE
5
1da3
8
0-0
6
CONTINUOUS
62
  7
10
578.479
20
895.072
30
0.0
11
578.989
21
894.840
31
0.0
0
LINE
5
1da4
8
0-0
6
CONTINUOUS
62
  7
10
578.989
20
894.840
30
0.0
11
579.516
21
894.615
31
0.0
0
LINE
5
1da5
8
0-0
6
CONTINUOUS
62
  7
10
579.516
20
894.615
30
0.0
11
579.824
21
894.489
31
0.0
0
LINE
5
1da6
8
0-0
6
CONTINUOUS
62
  7
10
579.824
20
894.489
30
0.0
11
580.115
21
894.373
31
0.0
0
LINE
5
1da7
8
0-0
6
CONTINUOUS
62
  7
10
580.115
20
894.373
30
0.0
11
580.618
21
894.168
31
0.0
0
LINE
5
1da8
8
0-0
6
CONTINUOUS
62
  7
10
580.618
20
894.168
30
0.0
11
581.142
21
893.937
31
0.0
0
LINE
5
1da9
8
0-0
6
CONTINUOUS
62
  7
10
581.142
20
893.937
30
0.0
11
581.661
21
893.673
31
0.0
0
LINE
5
1daa
8
0-0
6
CONTINUOUS
62
  7
10
581.661
20
893.673
30
0.0
11
581.974
21
893.488
31
0.0
0
LINE
5
1dab
8
0-0
6
CONTINUOUS
62
  7
10
581.974
20
893.488
30
0.0
11
582.339
21
893.239
31
0.0
0
LINE
5
1dac
8
0-0
6
CONTINUOUS
62
  7
10
582.339
20
893.239
30
0.0
11
582.895
21
892.786
31
0.0
0
LINE
5
1dad
8
0-0
6
CONTINUOUS
62
  7
10
582.895
20
892.786
30
0.0
11
583.408
21
892.295
31
0.0
0
LINE
5
1dae
8
0-0
6
CONTINUOUS
62
  7
10
583.408
20
892.295
30
0.0
11
583.885
21
891.793
31
0.0
0
LINE
5
1daf
8
0-0
6
CONTINUOUS
62
  7
10
583.885
20
891.793
30
0.0
11
584.163
21
891.492
31
0.0
0
LINE
5
1db0
8
0-0
6
CONTINUOUS
62
  7
10
584.163
20
891.492
30
0.0
11
584.425
21
891.207
31
0.0
0
LINE
5
1db1
8
0-0
6
CONTINUOUS
62
  7
10
584.425
20
891.207
30
0.0
11
584.880
21
890.674
31
0.0
0
LINE
5
1db2
8
0-0
6
CONTINUOUS
62
  7
10
584.880
20
890.674
30
0.0
11
585.310
21
890.053
31
0.0
0
LINE
5
1db3
8
0-0
6
CONTINUOUS
62
  7
10
585.310
20
890.053
30
0.0
11
585.627
21
889.340
31
0.0
0
LINE
5
1db4
8
0-0
6
CONTINUOUS
62
  7
10
585.627
20
889.340
30
0.0
11
585.728
21
888.832
31
0.0
0
LINE
5
1db5
8
0-0
6
CONTINUOUS
62
  7
10
585.728
20
888.832
30
0.0
11
585.741
21
888.434
31
0.0
0
LINE
5
1db6
8
0-0
6
CONTINUOUS
62
  7
10
585.741
20
888.434
30
0.0
11
585.676
21
887.881
31
0.0
0
LINE
5
1db7
8
0-0
6
CONTINUOUS
62
  7
10
585.676
20
887.881
30
0.0
11
585.559
21
887.374
31
0.0
0
LINE
5
1db8
8
0-0
6
CONTINUOUS
62
  7
10
585.559
20
887.374
30
0.0
11
585.440
21
886.931
31
0.0
0
LINE
5
1db9
8
0-0
6
CONTINUOUS
62
  7
10
585.440
20
886.931
30
0.0
11
585.385
21
886.705
31
0.0
0
LINE
5
1dba
8
0-0
6
CONTINUOUS
62
  7
10
585.385
20
886.705
30
0.0
11
585.352
21
886.547
31
0.0
0
LINE
5
1dbb
8
0-0
6
CONTINUOUS
62
  7
10
585.352
20
886.547
30
0.0
11
585.296
21
886.243
31
0.0
0
LINE
5
1dbc
8
0-0
6
CONTINUOUS
62
  7
10
585.296
20
886.243
30
0.0
11
585.233
21
885.907
31
0.0
0
LINE
5
1dbd
8
0-0
6
CONTINUOUS
62
  7
10
585.233
20
885.907
30
0.0
11
585.150
21
885.549
31
0.0
0
LINE
5
1dbe
8
0-0
6
CONTINUOUS
62
  7
10
585.150
20
885.549
30
0.0
11
585.078
21
885.308
31
0.0
0
LINE
5
1dbf
8
0-0
6
CONTINUOUS
62
  7
10
585.078
20
885.308
30
0.0
11
584.943
21
884.951
31
0.0
0
LINE
5
1dc0
8
0-0
6
CONTINUOUS
62
  7
10
584.943
20
884.951
30
0.0
11
584.669
21
884.404
31
0.0
0
LINE
5
1dc1
8
0-0
6
CONTINUOUS
62
  7
10
584.669
20
884.404
30
0.0
11
584.355
21
883.902
31
0.0
0
LINE
5
1dc2
8
0-0
6
CONTINUOUS
62
  7
10
584.355
20
883.902
30
0.0
11
584.040
21
883.457
31
0.0
0
LINE
5
1dc3
8
0-0
6
CONTINUOUS
62
  7
10
584.040
20
883.457
30
0.0
11
583.864
21
883.220
31
0.0
0
LINE
5
1dc4
8
0-0
6
CONTINUOUS
62
  7
10
583.864
20
883.220
30
0.0
11
583.704
21
883.009
31
0.0
0
LINE
5
1dc5
8
0-0
6
CONTINUOUS
62
  7
10
583.704
20
883.009
30
0.0
11
583.901
21
883.046
31
0.0
0
LINE
5
1dc6
8
0-0
6
CONTINUOUS
62
  7
10
583.901
20
883.046
30
0.0
11
584.483
21
883.096
31
0.0
0
LINE
5
1dc7
8
0-0
6
CONTINUOUS
62
  7
10
584.483
20
883.096
30
0.0
11
584.852
21
883.094
31
0.0
0
LINE
5
1dc8
8
0-0
6
CONTINUOUS
62
  7
10
584.852
20
883.094
30
0.0
11
585.185
21
883.071
31
0.0
0
LINE
5
1dc9
8
0-0
6
CONTINUOUS
62
  7
10
585.185
20
883.071
30
0.0
11
585.743
21
882.988
31
0.0
0
LINE
5
1dca
8
0-0
6
CONTINUOUS
62
  7
10
585.743
20
882.988
30
0.0
11
586.320
21
882.845
31
0.0
0
LINE
5
1dcb
8
0-0
6
CONTINUOUS
62
  7
10
586.320
20
882.845
30
0.0
11
586.881
21
882.640
31
0.0
0
LINE
5
1dcc
8
0-0
6
CONTINUOUS
62
  7
10
586.881
20
882.640
30
0.0
11
587.222
21
882.479
31
0.0
0
LINE
5
1dcd
8
0-0
6
CONTINUOUS
62
  7
10
587.222
20
882.479
30
0.0
11
587.644
21
882.231
31
0.0
0
LINE
5
1dce
8
0-0
6
CONTINUOUS
62
  7
10
587.644
20
882.231
30
0.0
11
588.266
21
881.749
31
0.0
0
LINE
5
1dcf
8
0-0
6
CONTINUOUS
62
  7
10
588.266
20
881.749
30
0.0
11
588.809
21
881.187
31
0.0
0
LINE
5
1dd0
8
0-0
6
CONTINUOUS
62
  7
10
588.809
20
881.187
30
0.0
11
589.266
21
880.588
31
0.0
0
LINE
5
1dd1
8
0-0
6
CONTINUOUS
62
  7
10
589.266
20
880.588
30
0.0
11
589.507
21
880.216
31
0.0
0
LINE
5
1dd2
8
0-0
6
CONTINUOUS
62
  7
10
589.507
20
880.216
30
0.0
11
589.692
21
879.901
31
0.0
0
LINE
5
1dd3
8
0-0
6
CONTINUOUS
62
  7
10
589.692
20
879.901
30
0.0
11
589.970
21
879.355
31
0.0
0
LINE
5
1dd4
8
0-0
6
CONTINUOUS
62
  7
10
589.970
20
879.355
30
0.0
11
590.206
21
878.772
31
0.0
0
LINE
5
1dd5
8
0-0
6
CONTINUOUS
62
  7
10
590.206
20
878.772
30
0.0
11
590.382
21
878.171
31
0.0
0
LINE
5
1dd6
8
0-0
6
CONTINUOUS
62
  7
10
590.382
20
878.171
30
0.0
11
590.456
21
877.790
31
0.0
0
LINE
5
1dd7
8
0-0
6
CONTINUOUS
62
  7
10
590.456
20
877.790
30
0.0
11
590.506
21
877.370
31
0.0
0
LINE
5
1dd8
8
0-0
6
CONTINUOUS
62
  7
10
590.506
20
877.370
30
0.0
11
590.526
21
876.695
31
0.0
0
LINE
5
1dd9
8
0-0
6
CONTINUOUS
62
  7
10
590.526
20
876.695
30
0.0
11
590.495
21
876.041
31
0.0
0
LINE
5
1dda
8
0-0
6
CONTINUOUS
62
  7
10
590.495
20
876.041
30
0.0
11
590.442
21
875.408
31
0.0
0
LINE
5
1ddb
8
0-0
6
CONTINUOUS
62
  7
10
590.442
20
875.408
30
0.0
11
590.413
21
875.074
31
0.0
0
LINE
5
1ddc
8
0-0
6
CONTINUOUS
62
  7
10
590.413
20
875.074
30
0.0
11
590.384
21
874.692
31
0.0
0
LINE
5
1ddd
8
0-0
6
CONTINUOUS
62
  7
10
590.384
20
874.692
30
0.0
11
590.344
21
874.005
31
0.0
0
LINE
5
1dde
8
0-0
6
CONTINUOUS
62
  7
10
590.344
20
874.005
30
0.0
11
590.310
21
873.328
31
0.0
0
LINE
5
1ddf
8
0-0
6
CONTINUOUS
62
  7
10
590.310
20
873.328
30
0.0
11
590.271
21
872.618
31
0.0
0
LINE
5
1de0
8
0-0
6
CONTINUOUS
62
  7
10
590.271
20
872.618
30
0.0
11
590.245
21
872.210
31
0.0
0
LINE
5
1de1
8
0-0
6
CONTINUOUS
62
  7
10
590.245
20
872.210
30
0.0
11
590.222
21
871.908
31
0.0
0
LINE
5
1de2
8
0-0
6
CONTINUOUS
62
  7
10
590.222
20
871.908
30
0.0
11
590.173
21
871.391
31
0.0
0
LINE
5
1de3
8
0-0
6
CONTINUOUS
62
  7
10
590.173
20
871.391
30
0.0
11
590.109
21
870.867
31
0.0
0
LINE
5
1de4
8
0-0
6
CONTINUOUS
62
  7
10
590.109
20
870.867
30
0.0
11
590.026
21
870.344
31
0.0
0
LINE
5
1de5
8
0-0
6
CONTINUOUS
62
  7
10
590.026
20
870.344
30
0.0
11
589.965
21
870.031
31
0.0
0
LINE
5
1de6
8
0-0
6
CONTINUOUS
62
  7
10
589.965
20
870.031
30
0.0
11
589.888
21
869.687
31
0.0
0
LINE
5
1de7
8
0-0
6
CONTINUOUS
62
  7
10
589.888
20
869.687
30
0.0
11
589.749
21
869.129
31
0.0
0
LINE
5
1de8
8
0-0
6
CONTINUOUS
62
  7
10
589.749
20
869.129
30
0.0
11
589.612
21
868.593
31
0.0
0
LINE
5
1de9
8
0-0
6
CONTINUOUS
62
  7
10
589.612
20
868.593
30
0.0
11
589.495
21
868.081
31
0.0
0
LINE
5
1dea
8
0-0
6
CONTINUOUS
62
  7
10
589.495
20
868.081
30
0.0
11
589.443
21
867.802
31
0.0
0
LINE
5
1deb
8
0-0
6
CONTINUOUS
62
  7
10
589.443
20
867.802
30
0.0
11
589.411
21
867.587
31
0.0
0
LINE
5
1dec
8
0-0
6
CONTINUOUS
62
  7
10
589.411
20
867.587
30
0.0
11
589.367
21
867.192
31
0.0
0
LINE
5
1ded
8
0-0
6
CONTINUOUS
62
  7
10
589.367
20
867.192
30
0.0
11
589.335
21
866.784
31
0.0
0
LINE
5
1dee
8
0-0
6
CONTINUOUS
62
  7
10
589.335
20
866.784
30
0.0
11
589.311
21
866.357
31
0.0
0
LINE
5
1def
8
0-0
6
CONTINUOUS
62
  7
10
589.311
20
866.357
30
0.0
11
589.296
21
866.098
31
0.0
0
LINE
5
1df0
8
0-0
6
CONTINUOUS
62
  7
10
589.296
20
866.098
30
0.0
11
589.279
21
865.775
31
0.0
0
LINE
5
1df1
8
0-0
6
CONTINUOUS
62
  7
10
589.279
20
865.775
30
0.0
11
589.254
21
865.215
31
0.0
0
LINE
5
1df2
8
0-0
6
CONTINUOUS
62
  7
10
589.254
20
865.215
30
0.0
11
589.251
21
864.691
31
0.0
0
LINE
5
1df3
8
0-0
6
CONTINUOUS
62
  7
10
589.251
20
864.691
30
0.0
11
589.284
21
864.192
31
0.0
0
LINE
5
1df4
8
0-0
6
CONTINUOUS
62
  7
10
589.284
20
864.192
30
0.0
11
589.321
21
863.940
31
0.0
0
LINE
5
1df5
8
0-0
6
CONTINUOUS
62
  7
10
589.321
20
863.940
30
0.0
11
589.398
21
863.595
31
0.0
0
LINE
5
1df6
8
0-0
6
CONTINUOUS
62
  7
10
589.398
20
863.595
30
0.0
11
589.616
21
862.970
31
0.0
0
LINE
5
1df7
8
0-0
6
CONTINUOUS
62
  7
10
589.616
20
862.970
30
0.0
11
589.916
21
862.362
31
0.0
0
LINE
5
1df8
8
0-0
6
CONTINUOUS
62
  7
10
589.916
20
862.362
30
0.0
11
590.294
21
861.757
31
0.0
0
LINE
5
1df9
8
0-0
6
CONTINUOUS
62
  7
10
590.294
20
861.757
30
0.0
11
590.531
21
861.428
31
0.0
0
LINE
5
1dfa
8
0-0
6
CONTINUOUS
62
  7
10
590.531
20
861.428
30
0.0
11
590.807
21
861.080
31
0.0
0
LINE
5
1dfb
8
0-0
6
CONTINUOUS
62
  7
10
590.807
20
861.080
30
0.0
11
590.940
21
860.931
31
0.0
0
LINE
5
1dfc
8
0-0
6
CONTINUOUS
62
  7
10
540.327
20
965.464
30
0.0
11
540.380
21
965.303
31
0.0
0
LINE
5
1dfd
8
0-0
6
CONTINUOUS
62
  7
10
540.380
20
965.303
30
0.0
11
540.650
21
964.375
31
0.0
0
LINE
5
1dfe
8
0-0
6
CONTINUOUS
62
  7
10
540.650
20
964.375
30
0.0
11
540.876
21
963.436
31
0.0
0
LINE
5
1dff
8
0-0
6
CONTINUOUS
62
  7
10
540.876
20
963.436
30
0.0
11
541.061
21
962.484
31
0.0
0
LINE
5
1e00
8
0-0
6
CONTINUOUS
62
  7
10
541.061
20
962.484
30
0.0
11
541.145
21
961.950
31
0.0
0
LINE
5
1e01
8
0-0
6
CONTINUOUS
62
  7
10
541.145
20
961.950
30
0.0
11
541.362
21
959.839
31
0.0
0
LINE
5
1e02
8
0-0
6
CONTINUOUS
62
  7
10
541.362
20
959.839
30
0.0
11
541.388
21
956.132
31
0.0
0
LINE
5
1e03
8
0-0
6
CONTINUOUS
62
  7
10
541.388
20
956.132
30
0.0
11
541.127
21
952.375
31
0.0
0
LINE
5
1e04
8
0-0
6
CONTINUOUS
62
  7
10
541.127
20
952.375
30
0.0
11
540.768
21
948.578
31
0.0
0
LINE
5
1e05
8
0-0
6
CONTINUOUS
62
  7
10
540.768
20
948.578
30
0.0
11
540.592
21
946.361
31
0.0
0
LINE
5
1e06
8
0-0
6
CONTINUOUS
62
  7
10
540.592
20
946.361
30
0.0
11
540.479
21
944.104
31
0.0
0
LINE
5
1e07
8
0-0
6
CONTINUOUS
62
  7
10
540.479
20
944.104
30
0.0
11
540.449
21
940.236
31
0.0
0
LINE
5
1e08
8
0-0
6
CONTINUOUS
62
  7
10
540.449
20
940.236
30
0.0
11
540.608
21
936.356
31
0.0
0
LINE
5
1e09
8
0-0
6
CONTINUOUS
62
  7
10
540.608
20
936.356
30
0.0
11
540.934
21
932.439
31
0.0
0
LINE
5
1e0a
8
0-0
6
CONTINUOUS
62
  7
10
540.934
20
932.439
30
0.0
11
541.193
21
930.124
31
0.0
0
LINE
5
1e0b
8
0-0
6
CONTINUOUS
62
  7
10
541.193
20
930.124
30
0.0
11
541.515
21
927.701
31
0.0
0
LINE
5
1e0c
8
0-0
6
CONTINUOUS
62
  7
10
541.515
20
927.701
30
0.0
11
542.291
21
923.529
31
0.0
0
LINE
5
1e0d
8
0-0
6
CONTINUOUS
62
  7
10
542.291
20
923.529
30
0.0
11
543.524
21
919.498
31
0.0
0
LINE
5
1e0e
8
0-0
6
CONTINUOUS
62
  7
10
543.524
20
919.498
30
0.0
11
545.409
21
915.834
31
0.0
0
LINE
5
1e0f
8
0-0
6
CONTINUOUS
62
  7
10
545.409
20
915.834
30
0.0
11
546.904
21
913.934
31
0.0
0
LINE
5
1e10
8
0-0
6
CONTINUOUS
62
  7
10
546.904
20
913.934
30
0.0
11
548.004
21
912.860
31
0.0
0
LINE
5
1e11
8
0-0
6
CONTINUOUS
62
  7
10
548.004
20
912.860
30
0.0
11
550.074
21
911.295
31
0.0
0
LINE
5
1e12
8
0-0
6
CONTINUOUS
62
  7
10
550.074
20
911.295
30
0.0
11
552.373
21
910.007
31
0.0
0
LINE
5
1e13
8
0-0
6
CONTINUOUS
62
  7
10
552.373
20
910.007
30
0.0
11
554.799
21
909.000
31
0.0
0
LINE
5
1e14
8
0-0
6
CONTINUOUS
62
  7
10
554.799
20
909.000
30
0.0
11
556.262
21
908.531
31
0.0
0
LINE
5
1e15
8
0-0
6
CONTINUOUS
62
  7
10
556.262
20
908.531
30
0.0
11
558.409
21
908.004
31
0.0
0
LINE
5
1e16
8
0-0
6
CONTINUOUS
62
  7
10
558.409
20
908.004
30
0.0
11
562.099
21
907.472
31
0.0
0
LINE
5
1e17
8
0-0
6
CONTINUOUS
62
  7
10
562.099
20
907.472
30
0.0
11
565.803
21
907.288
31
0.0
0
LINE
5
1e18
8
0-0
6
CONTINUOUS
62
  7
10
565.803
20
907.288
30
0.0
11
569.489
21
907.315
31
0.0
0
LINE
5
1e19
8
0-0
6
CONTINUOUS
62
  7
10
569.489
20
907.315
30
0.0
11
570.209
21
907.334
31
0.0
0
LINE
5
1e1a
8
0-0
6
CONTINUOUS
62
  7
10
542.092
20
966.492
30
0.0
11
542.290
21
965.898
31
0.0
0
LINE
5
1e1b
8
0-0
6
CONTINUOUS
62
  7
10
542.290
20
965.898
30
0.0
11
542.584
21
964.888
31
0.0
0
LINE
5
1e1c
8
0-0
6
CONTINUOUS
62
  7
10
542.584
20
964.888
30
0.0
11
542.831
21
963.862
31
0.0
0
LINE
5
1e1d
8
0-0
6
CONTINUOUS
62
  7
10
542.831
20
963.862
30
0.0
11
543.031
21
962.831
31
0.0
0
LINE
5
1e1e
8
0-0
6
CONTINUOUS
62
  7
10
543.031
20
962.831
30
0.0
11
543.130
21
962.209
31
0.0
0
LINE
5
1e1f
8
0-0
6
CONTINUOUS
62
  7
10
543.130
20
962.209
30
0.0
11
543.362
21
959.948
31
0.0
0
LINE
5
1e20
8
0-0
6
CONTINUOUS
62
  7
10
543.362
20
959.948
30
0.0
11
543.388
21
956.070
31
0.0
0
LINE
5
1e21
8
0-0
6
CONTINUOUS
62
  7
10
543.388
20
956.070
30
0.0
11
543.120
21
952.212
31
0.0
0
LINE
5
1e22
8
0-0
6
CONTINUOUS
62
  7
10
543.120
20
952.212
30
0.0
11
542.761
21
948.405
31
0.0
0
LINE
5
1e23
8
0-0
6
CONTINUOUS
62
  7
10
542.761
20
948.405
30
0.0
11
542.588
21
946.232
31
0.0
0
LINE
5
1e24
8
0-0
6
CONTINUOUS
62
  7
10
542.588
20
946.232
30
0.0
11
542.478
21
944.045
31
0.0
0
LINE
5
1e25
8
0-0
6
CONTINUOUS
62
  7
10
542.478
20
944.045
30
0.0
11
542.449
21
940.271
31
0.0
0
LINE
5
1e26
8
0-0
6
CONTINUOUS
62
  7
10
542.449
20
940.271
30
0.0
11
542.605
21
936.480
31
0.0
0
LINE
5
1e27
8
0-0
6
CONTINUOUS
62
  7
10
542.605
20
936.480
30
0.0
11
542.925
21
932.631
31
0.0
0
LINE
5
1e28
8
0-0
6
CONTINUOUS
62
  7
10
542.925
20
932.631
30
0.0
11
543.178
21
930.368
31
0.0
0
LINE
5
1e29
8
0-0
6
CONTINUOUS
62
  7
10
543.178
20
930.368
30
0.0
11
543.490
21
928.016
31
0.0
0
LINE
5
1e2a
8
0-0
6
CONTINUOUS
62
  7
10
543.490
20
928.016
30
0.0
11
544.237
21
924.006
31
0.0
0
LINE
5
1e2b
8
0-0
6
CONTINUOUS
62
  7
10
544.237
20
924.006
30
0.0
11
545.384
21
920.254
31
0.0
0
LINE
5
1e2c
8
0-0
6
CONTINUOUS
62
  7
10
545.384
20
920.254
30
0.0
11
547.099
21
916.920
31
0.0
0
LINE
5
1e2d
8
0-0
6
CONTINUOUS
62
  7
10
547.099
20
916.920
30
0.0
11
548.395
21
915.273
31
0.0
0
LINE
5
1e2e
8
0-0
6
CONTINUOUS
62
  7
10
548.395
20
915.273
30
0.0
11
549.310
21
914.380
31
0.0
0
LINE
5
1e2f
8
0-0
6
CONTINUOUS
62
  7
10
549.310
20
914.380
30
0.0
11
551.172
21
912.972
31
0.0
0
LINE
5
1e30
8
0-0
6
CONTINUOUS
62
  7
10
551.172
20
912.972
30
0.0
11
553.249
21
911.809
31
0.0
0
LINE
5
1e31
8
0-0
6
CONTINUOUS
62
  7
10
553.249
20
911.809
30
0.0
11
555.489
21
910.879
31
0.0
0
LINE
5
1e32
8
0-0
6
CONTINUOUS
62
  7
10
555.489
20
910.879
30
0.0
11
556.807
21
910.456
31
0.0
0
LINE
5
1e33
8
0-0
6
CONTINUOUS
62
  7
10
556.807
20
910.456
30
0.0
11
558.790
21
909.970
31
0.0
0
LINE
5
1e34
8
0-0
6
CONTINUOUS
62
  7
10
558.790
20
909.970
30
0.0
11
562.292
21
909.465
31
0.0
0
LINE
5
1e35
8
0-0
6
CONTINUOUS
62
  7
10
562.292
20
909.465
30
0.0
11
565.845
21
909.288
31
0.0
0
LINE
5
1e36
8
0-0
6
CONTINUOUS
62
  7
10
565.845
20
909.288
30
0.0
11
569.456
21
909.314
31
0.0
0
LINE
5
1e37
8
0-0
6
CONTINUOUS
62
  7
10
569.456
20
909.314
30
0.0
11
570.933
21
909.355
31
0.0
0
LINE
5
1e38
8
0-0
6
CONTINUOUS
62
  7
10
586.195
20
908.775
30
0.0
11
585.965
21
908.224
31
0.0
0
LINE
5
1e39
8
0-0
6
CONTINUOUS
62
  7
10
585.965
20
908.224
30
0.0
11
585.778
21
907.646
31
0.0
0
LINE
5
1e3a
8
0-0
6
CONTINUOUS
62
  7
10
585.778
20
907.646
30
0.0
11
585.581
21
906.655
31
0.0
0
LINE
5
1e3b
8
0-0
6
CONTINUOUS
62
  7
10
585.581
20
906.655
30
0.0
11
585.551
21
905.631
31
0.0
0
LINE
5
1e3c
8
0-0
6
CONTINUOUS
62
  7
10
585.551
20
905.631
30
0.0
11
585.725
21
904.644
31
0.0
0
LINE
5
1e3d
8
0-0
6
CONTINUOUS
62
  7
10
585.725
20
904.644
30
0.0
11
585.954
21
904.051
31
0.0
0
LINE
5
1e3e
8
0-0
6
CONTINUOUS
62
  7
10
585.954
20
904.051
30
0.0
11
586.315
21
903.447
31
0.0
0
LINE
5
1e3f
8
0-0
6
CONTINUOUS
62
  7
10
586.315
20
903.447
30
0.0
11
587.083
21
902.638
31
0.0
0
LINE
5
1e40
8
0-0
6
CONTINUOUS
62
  7
10
587.083
20
902.638
30
0.0
11
588.018
21
902.001
31
0.0
0
LINE
5
1e41
8
0-0
6
CONTINUOUS
62
  7
10
588.018
20
902.001
30
0.0
11
589.023
21
901.520
31
0.0
0
LINE
5
1e42
8
0-0
6
CONTINUOUS
62
  7
10
589.023
20
901.520
30
0.0
11
589.643
21
901.288
31
0.0
0
LINE
5
1e43
8
0-0
6
CONTINUOUS
62
  7
10
589.643
20
901.288
30
0.0
11
590.356
21
901.067
31
0.0
0
LINE
5
1e44
8
0-0
6
CONTINUOUS
62
  7
10
590.356
20
901.067
30
0.0
11
591.586
21
900.810
31
0.0
0
LINE
5
1e45
8
0-0
6
CONTINUOUS
62
  7
10
591.586
20
900.810
30
0.0
11
592.845
21
900.740
31
0.0
0
LINE
5
1e46
8
0-0
6
CONTINUOUS
62
  7
10
592.845
20
900.740
30
0.0
11
594.060
21
900.925
31
0.0
0
LINE
5
1e47
8
0-0
6
CONTINUOUS
62
  7
10
594.060
20
900.925
30
0.0
11
594.787
21
901.201
31
0.0
0
LINE
5
1e48
8
0-0
6
CONTINUOUS
62
  7
10
594.787
20
901.201
30
0.0
11
595.602
21
901.718
31
0.0
0
LINE
5
1e49
8
0-0
6
CONTINUOUS
62
  7
10
595.602
20
901.718
30
0.0
11
596.664
21
902.869
31
0.0
0
LINE
5
1e4a
8
0-0
6
CONTINUOUS
62
  7
10
596.664
20
902.869
30
0.0
11
597.457
21
904.268
31
0.0
0
LINE
5
1e4b
8
0-0
6
CONTINUOUS
62
  7
10
597.457
20
904.268
30
0.0
11
598.027
21
905.749
31
0.0
0
LINE
5
1e4c
8
0-0
6
CONTINUOUS
62
  7
10
598.027
20
905.749
30
0.0
11
598.285
21
906.622
31
0.0
0
LINE
5
1e4d
8
0-0
6
CONTINUOUS
62
  7
10
598.285
20
906.622
30
0.0
11
598.487
21
907.445
31
0.0
0
LINE
5
1e4e
8
0-0
6
CONTINUOUS
62
  7
10
598.487
20
907.445
30
0.0
11
598.740
21
908.811
31
0.0
0
LINE
5
1e4f
8
0-0
6
CONTINUOUS
62
  7
10
598.740
20
908.811
30
0.0
11
598.891
21
910.162
31
0.0
0
LINE
5
1e50
8
0-0
6
CONTINUOUS
62
  7
10
598.891
20
910.162
30
0.0
11
598.954
21
911.504
31
0.0
0
LINE
5
1e51
8
0-0
6
CONTINUOUS
62
  7
10
598.954
20
911.504
30
0.0
11
598.957
21
912.292
31
0.0
0
LINE
5
1e52
8
0-0
6
CONTINUOUS
62
  7
10
598.957
20
912.292
30
0.0
11
598.951
21
912.649
31
0.0
0
LINE
5
1e53
8
0-0
6
CONTINUOUS
62
  7
10
598.951
20
912.649
30
0.0
11
598.922
21
913.266
31
0.0
0
LINE
5
1e54
8
0-0
6
CONTINUOUS
62
  7
10
598.922
20
913.266
30
0.0
11
598.854
21
913.906
31
0.0
0
LINE
5
1e55
8
0-0
6
CONTINUOUS
62
  7
10
598.854
20
913.906
30
0.0
11
598.729
21
914.547
31
0.0
0
LINE
5
1e56
8
0-0
6
CONTINUOUS
62
  7
10
598.729
20
914.547
30
0.0
11
598.617
21
914.936
31
0.0
0
LINE
5
1e57
8
0-0
6
CONTINUOUS
62
  7
10
598.617
20
914.936
30
0.0
11
598.497
21
915.267
31
0.0
0
LINE
5
1e58
8
0-0
6
CONTINUOUS
62
  7
10
598.497
20
915.267
30
0.0
11
598.271
21
915.774
31
0.0
0
LINE
5
1e59
8
0-0
6
CONTINUOUS
62
  7
10
598.271
20
915.774
30
0.0
11
598.017
21
916.254
31
0.0
0
LINE
5
1e5a
8
0-0
6
CONTINUOUS
62
  7
10
598.017
20
916.254
30
0.0
11
597.759
21
916.701
31
0.0
0
LINE
5
1e5b
8
0-0
6
CONTINUOUS
62
  7
10
597.759
20
916.701
30
0.0
11
597.602
21
916.967
31
0.0
0
LINE
5
1e5c
8
0-0
6
CONTINUOUS
62
  7
10
597.602
20
916.967
30
0.0
11
597.474
21
917.186
31
0.0
0
LINE
5
1e5d
8
0-0
6
CONTINUOUS
62
  7
10
597.474
20
917.186
30
0.0
11
597.237
21
917.583
31
0.0
0
LINE
5
1e5e
8
0-0
6
CONTINUOUS
62
  7
10
597.237
20
917.583
30
0.0
11
596.979
21
917.994
31
0.0
0
LINE
5
1e5f
8
0-0
6
CONTINUOUS
62
  7
10
596.979
20
917.994
30
0.0
11
596.697
21
918.403
31
0.0
0
LINE
5
1e60
8
0-0
6
CONTINUOUS
62
  7
10
596.697
20
918.403
30
0.0
11
596.511
21
918.646
31
0.0
0
LINE
5
1e61
8
0-0
6
CONTINUOUS
62
  7
10
596.511
20
918.646
30
0.0
11
596.302
21
918.897
31
0.0
0
LINE
5
1e62
8
0-0
6
CONTINUOUS
62
  7
10
596.302
20
918.897
30
0.0
11
595.930
21
919.292
31
0.0
0
LINE
5
1e63
8
0-0
6
CONTINUOUS
62
  7
10
595.930
20
919.292
30
0.0
11
595.534
21
919.661
31
0.0
0
LINE
5
1e64
8
0-0
6
CONTINUOUS
62
  7
10
595.534
20
919.661
30
0.0
11
595.125
21
920.000
31
0.0
0
LINE
5
1e65
8
0-0
6
CONTINUOUS
62
  7
10
595.125
20
920.000
30
0.0
11
594.871
21
920.195
31
0.0
0
LINE
5
1e66
8
0-0
6
CONTINUOUS
62
  7
10
594.871
20
920.195
30
0.0
11
594.317
21
920.584
31
0.0
0
LINE
5
1e67
8
0-0
6
CONTINUOUS
62
  7
10
594.317
20
920.584
30
0.0
11
593.326
21
921.172
31
0.0
0
LINE
5
1e68
8
0-0
6
CONTINUOUS
62
  7
10
593.326
20
921.172
30
0.0
11
592.270
21
921.663
31
0.0
0
LINE
5
1e69
8
0-0
6
CONTINUOUS
62
  7
10
592.270
20
921.663
30
0.0
11
591.181
21
922.037
31
0.0
0
LINE
5
1e6a
8
0-0
6
CONTINUOUS
62
  7
10
591.181
20
922.037
30
0.0
11
590.522
21
922.201
31
0.0
0
LINE
5
1e6b
8
0-0
6
CONTINUOUS
62
  7
10
590.522
20
922.201
30
0.0
11
590.166
21
922.271
31
0.0
0
LINE
5
1e6c
8
0-0
6
CONTINUOUS
62
  7
10
590.166
20
922.271
30
0.0
11
589.589
21
922.365
31
0.0
0
LINE
5
1e6d
8
0-0
6
CONTINUOUS
62
  7
10
589.589
20
922.365
30
0.0
11
589.037
21
922.444
31
0.0
0
LINE
5
1e6e
8
0-0
6
CONTINUOUS
62
  7
10
589.037
20
922.444
30
0.0
11
588.494
21
922.524
31
0.0
0
LINE
5
1e6f
8
0-0
6
CONTINUOUS
62
  7
10
588.494
20
922.524
30
0.0
11
588.199
21
922.574
31
0.0
0
LINE
5
1e70
8
0-0
6
CONTINUOUS
62
  7
10
588.199
20
922.574
30
0.0
11
587.872
21
922.638
31
0.0
0
LINE
5
1e71
8
0-0
6
CONTINUOUS
62
  7
10
587.872
20
922.638
30
0.0
11
587.270
21
922.769
31
0.0
0
LINE
5
1e72
8
0-0
6
CONTINUOUS
62
  7
10
587.270
20
922.769
30
0.0
11
586.644
21
922.901
31
0.0
0
LINE
5
1e73
8
0-0
6
CONTINUOUS
62
  7
10
586.644
20
922.901
30
0.0
11
585.989
21
923.011
31
0.0
0
LINE
5
1e74
8
0-0
6
CONTINUOUS
62
  7
10
585.989
20
923.011
30
0.0
11
585.583
21
923.056
31
0.0
0
LINE
5
1e75
8
0-0
6
CONTINUOUS
62
  7
10
585.583
20
923.056
30
0.0
11
585.245
21
923.076
31
0.0
0
LINE
5
1e76
8
0-0
6
CONTINUOUS
62
  7
10
585.245
20
923.076
30
0.0
11
584.699
21
923.080
31
0.0
0
LINE
5
1e77
8
0-0
6
CONTINUOUS
62
  7
10
584.699
20
923.080
30
0.0
11
584.156
21
923.055
31
0.0
0
LINE
5
1e78
8
0-0
6
CONTINUOUS
62
  7
10
584.156
20
923.055
30
0.0
11
583.634
21
923.015
31
0.0
0
LINE
5
1e79
8
0-0
6
CONTINUOUS
62
  7
10
583.634
20
923.015
30
0.0
11
583.336
21
922.988
31
0.0
0
LINE
5
1e7a
8
0-0
6
CONTINUOUS
62
  7
10
583.336
20
922.988
30
0.0
11
583.016
21
922.958
31
0.0
0
LINE
5
1e7b
8
0-0
6
CONTINUOUS
62
  7
10
583.016
20
922.958
30
0.0
11
582.465
21
922.894
31
0.0
0
LINE
5
1e7c
8
0-0
6
CONTINUOUS
62
  7
10
582.465
20
922.894
30
0.0
11
581.889
21
922.798
31
0.0
0
LINE
5
1e7d
8
0-0
6
CONTINUOUS
62
  7
10
581.889
20
922.798
30
0.0
11
581.314
21
922.652
31
0.0
0
LINE
5
1e7e
8
0-0
6
CONTINUOUS
62
  7
10
581.314
20
922.652
30
0.0
11
580.950
21
922.526
31
0.0
0
LINE
5
1e7f
8
0-0
6
CONTINUOUS
62
  7
10
580.950
20
922.526
30
0.0
11
580.440
21
922.293
31
0.0
0
LINE
5
1e80
8
0-0
6
CONTINUOUS
62
  7
10
580.440
20
922.293
30
0.0
11
579.673
21
921.808
31
0.0
0
LINE
5
1e81
8
0-0
6
CONTINUOUS
62
  7
10
579.673
20
921.808
30
0.0
11
578.981
21
921.235
31
0.0
0
LINE
5
1e82
8
0-0
6
CONTINUOUS
62
  7
10
578.981
20
921.235
30
0.0
11
578.362
21
920.632
31
0.0
0
LINE
5
1e83
8
0-0
6
CONTINUOUS
62
  7
10
578.362
20
920.632
30
0.0
11
578.022
21
920.276
31
0.0
0
LINE
5
1e84
8
0-0
6
CONTINUOUS
62
  7
10
578.022
20
920.276
30
0.0
11
577.547
21
919.764
31
0.0
0
LINE
5
1e85
8
0-0
6
CONTINUOUS
62
  7
10
577.547
20
919.764
30
0.0
11
576.762
21
918.874
31
0.0
0
LINE
5
1e86
8
0-0
6
CONTINUOUS
62
  7
10
576.762
20
918.874
30
0.0
11
576.015
21
917.954
31
0.0
0
LINE
5
1e87
8
0-0
6
CONTINUOUS
62
  7
10
576.015
20
917.954
30
0.0
11
575.318
21
916.998
31
0.0
0
LINE
5
1e88
8
0-0
6
CONTINUOUS
62
  7
10
575.318
20
916.998
30
0.0
11
574.934
21
916.416
31
0.0
0
LINE
5
1e89
8
0-0
6
CONTINUOUS
62
  7
10
574.934
20
916.416
30
0.0
11
574.630
21
915.920
31
0.0
0
LINE
5
1e8a
8
0-0
6
CONTINUOUS
62
  7
10
574.630
20
915.920
30
0.0
11
574.144
21
915.067
31
0.0
0
LINE
5
1e8b
8
0-0
6
CONTINUOUS
62
  7
10
574.144
20
915.067
30
0.0
11
573.678
21
914.212
31
0.0
0
LINE
5
1e8c
8
0-0
6
CONTINUOUS
62
  7
10
573.678
20
914.212
30
0.0
11
573.227
21
913.389
31
0.0
0
LINE
5
1e8d
8
0-0
6
CONTINUOUS
62
  7
10
573.227
20
913.389
30
0.0
11
572.958
21
912.918
31
0.0
0
LINE
5
1e8e
8
0-0
6
CONTINUOUS
62
  7
10
572.958
20
912.918
30
0.0
11
572.632
21
912.373
31
0.0
0
LINE
5
1e8f
8
0-0
6
CONTINUOUS
62
  7
10
572.632
20
912.373
30
0.0
11
572.047
21
911.420
31
0.0
0
LINE
5
1e90
8
0-0
6
CONTINUOUS
62
  7
10
572.047
20
911.420
30
0.0
11
571.465
21
910.429
31
0.0
0
LINE
5
1e91
8
0-0
6
CONTINUOUS
62
  7
10
571.465
20
910.429
30
0.0
11
570.932
21
909.384
31
0.0
0
LINE
5
1e92
8
0-0
6
CONTINUOUS
62
  7
10
570.932
20
909.384
30
0.0
11
570.917
21
909.349
31
0.0
0
LINE
5
1e93
8
0-0
6
CONTINUOUS
62
  7
10
570.237
20
907.327
30
0.0
11
570.223
21
907.273
31
0.0
0
LINE
5
1e94
8
0-0
6
CONTINUOUS
62
  7
10
570.223
20
907.273
30
0.0
11
570.051
21
906.333
31
0.0
0
LINE
5
1e95
8
0-0
6
CONTINUOUS
62
  7
10
570.051
20
906.333
30
0.0
11
569.952
21
905.395
31
0.0
0
LINE
5
1e96
8
0-0
6
CONTINUOUS
62
  7
10
569.952
20
905.395
30
0.0
11
569.924
21
904.843
31
0.0
0
LINE
5
1e97
8
0-0
6
CONTINUOUS
62
  7
10
569.924
20
904.843
30
0.0
11
569.917
21
904.283
31
0.0
0
LINE
5
1e98
8
0-0
6
CONTINUOUS
62
  7
10
569.917
20
904.283
30
0.0
11
569.953
21
903.346
31
0.0
0
LINE
5
1e99
8
0-0
6
CONTINUOUS
62
  7
10
569.953
20
903.346
30
0.0
11
570.043
21
902.410
31
0.0
0
LINE
5
1e9a
8
0-0
6
CONTINUOUS
62
  7
10
570.043
20
902.410
30
0.0
11
570.182
21
901.487
31
0.0
0
LINE
5
1e9b
8
0-0
6
CONTINUOUS
62
  7
10
570.182
20
901.487
30
0.0
11
570.283
21
900.947
31
0.0
0
LINE
5
1e9c
8
0-0
6
CONTINUOUS
62
  7
10
570.283
20
900.947
30
0.0
11
570.366
21
900.553
31
0.0
0
LINE
5
1e9d
8
0-0
6
CONTINUOUS
62
  7
10
570.366
20
900.553
30
0.0
11
570.535
21
899.881
31
0.0
0
LINE
5
1e9e
8
0-0
6
CONTINUOUS
62
  7
10
570.535
20
899.881
30
0.0
11
570.758
21
899.197
31
0.0
0
LINE
5
1e9f
8
0-0
6
CONTINUOUS
62
  7
10
570.758
20
899.197
30
0.0
11
571.050
21
898.535
31
0.0
0
LINE
5
1ea0
8
0-0
6
CONTINUOUS
62
  7
10
571.050
20
898.535
30
0.0
11
571.273
21
898.140
31
0.0
0
LINE
5
1ea1
8
0-0
6
CONTINUOUS
62
  7
10
571.273
20
898.140
30
0.0
11
571.543
21
897.744
31
0.0
0
LINE
5
1ea2
8
0-0
6
CONTINUOUS
62
  7
10
571.543
20
897.744
30
0.0
11
572.042
21
897.154
31
0.0
0
LINE
5
1ea3
8
0-0
6
CONTINUOUS
62
  7
10
572.042
20
897.154
30
0.0
11
572.591
21
896.624
31
0.0
0
LINE
5
1ea4
8
0-0
6
CONTINUOUS
62
  7
10
572.591
20
896.624
30
0.0
11
573.152
21
896.150
31
0.0
0
LINE
5
1ea5
8
0-0
6
CONTINUOUS
62
  7
10
573.152
20
896.150
30
0.0
11
573.483
21
895.888
31
0.0
0
LINE
5
1ea6
8
0-0
6
CONTINUOUS
62
  7
10
573.483
20
895.888
30
0.0
11
573.921
21
895.552
31
0.0
0
LINE
5
1ea7
8
0-0
6
CONTINUOUS
62
  7
10
573.921
20
895.552
30
0.0
11
574.677
21
894.997
31
0.0
0
LINE
5
1ea8
8
0-0
6
CONTINUOUS
62
  7
10
574.677
20
894.997
30
0.0
11
575.461
21
894.467
31
0.0
0
LINE
5
1ea9
8
0-0
6
CONTINUOUS
62
  7
10
575.461
20
894.467
30
0.0
11
576.263
21
893.975
31
0.0
0
LINE
5
1eaa
8
0-0
6
CONTINUOUS
62
  7
10
576.263
20
893.975
30
0.0
11
576.748
21
893.704
31
0.0
0
LINE
5
1eab
8
0-0
6
CONTINUOUS
62
  7
10
576.748
20
893.704
30
0.0
11
577.072
21
893.534
31
0.0
0
LINE
5
1eac
8
0-0
6
CONTINUOUS
62
  7
10
577.072
20
893.534
30
0.0
11
577.622
21
893.265
31
0.0
0
LINE
5
1ead
8
0-0
6
CONTINUOUS
62
  7
10
577.622
20
893.265
30
0.0
11
578.183
21
893.010
31
0.0
0
LINE
5
1eae
8
0-0
6
CONTINUOUS
62
  7
10
578.183
20
893.010
30
0.0
11
578.745
21
892.770
31
0.0
0
LINE
5
1eaf
8
0-0
6
CONTINUOUS
62
  7
10
578.745
20
892.770
30
0.0
11
579.074
21
892.635
31
0.0
0
LINE
5
1eb0
8
0-0
6
CONTINUOUS
62
  7
10
579.074
20
892.635
30
0.0
11
579.357
21
892.522
31
0.0
0
LINE
5
1eb1
8
0-0
6
CONTINUOUS
62
  7
10
579.357
20
892.522
30
0.0
11
579.841
21
892.325
31
0.0
0
LINE
5
1eb2
8
0-0
6
CONTINUOUS
62
  7
10
579.841
20
892.325
30
0.0
11
580.285
21
892.130
31
0.0
0
LINE
5
1eb3
8
0-0
6
CONTINUOUS
62
  7
10
580.285
20
892.130
30
0.0
11
580.696
21
891.920
31
0.0
0
LINE
5
1eb4
8
0-0
6
CONTINUOUS
62
  7
10
580.696
20
891.920
30
0.0
11
580.899
21
891.800
31
0.0
0
LINE
5
1eb5
8
0-0
6
CONTINUOUS
62
  7
10
580.899
20
891.800
30
0.0
11
581.141
21
891.635
31
0.0
0
LINE
5
1eb6
8
0-0
6
CONTINUOUS
62
  7
10
581.141
20
891.635
30
0.0
11
581.570
21
891.286
31
0.0
0
LINE
5
1eb7
8
0-0
6
CONTINUOUS
62
  7
10
581.570
20
891.286
30
0.0
11
581.991
21
890.883
31
0.0
0
LINE
5
1eb8
8
0-0
6
CONTINUOUS
62
  7
10
581.991
20
890.883
30
0.0
11
582.430
21
890.421
31
0.0
0
LINE
5
1eb9
8
0-0
6
CONTINUOUS
62
  7
10
582.430
20
890.421
30
0.0
11
582.689
21
890.140
31
0.0
0
LINE
5
1eba
8
0-0
6
CONTINUOUS
62
  7
10
582.689
20
890.140
30
0.0
11
582.925
21
889.882
31
0.0
0
LINE
5
1ebb
8
0-0
6
CONTINUOUS
62
  7
10
582.925
20
889.882
30
0.0
11
583.293
21
889.452
31
0.0
0
LINE
5
1ebc
8
0-0
6
CONTINUOUS
62
  7
10
583.293
20
889.452
30
0.0
11
583.558
21
889.069
31
0.0
0
LINE
5
1ebd
8
0-0
6
CONTINUOUS
62
  7
10
583.558
20
889.069
30
0.0
11
583.709
21
888.730
31
0.0
0
LINE
5
1ebe
8
0-0
6
CONTINUOUS
62
  7
10
583.709
20
888.730
30
0.0
11
583.734
21
888.602
31
0.0
0
LINE
5
1ebf
8
0-0
6
CONTINUOUS
62
  7
10
583.734
20
888.602
30
0.0
11
583.737
21
888.520
31
0.0
0
LINE
5
1ec0
8
0-0
6
CONTINUOUS
62
  7
10
583.737
20
888.520
30
0.0
11
583.702
21
888.223
31
0.0
0
LINE
5
1ec1
8
0-0
6
CONTINUOUS
62
  7
10
583.702
20
888.223
30
0.0
11
583.619
21
887.862
31
0.0
0
LINE
5
1ec2
8
0-0
6
CONTINUOUS
62
  7
10
583.619
20
887.862
30
0.0
11
583.503
21
887.429
31
0.0
0
LINE
5
1ec3
8
0-0
6
CONTINUOUS
62
  7
10
583.503
20
887.429
30
0.0
11
583.434
21
887.147
31
0.0
0
LINE
5
1ec4
8
0-0
6
CONTINUOUS
62
  7
10
583.434
20
887.147
30
0.0
11
583.389
21
886.935
31
0.0
0
LINE
5
1ec5
8
0-0
6
CONTINUOUS
62
  7
10
583.389
20
886.935
30
0.0
11
583.329
21
886.607
31
0.0
0
LINE
5
1ec6
8
0-0
6
CONTINUOUS
62
  7
10
583.329
20
886.607
30
0.0
11
583.275
21
886.317
31
0.0
0
LINE
5
1ec7
8
0-0
6
CONTINUOUS
62
  7
10
583.275
20
886.317
30
0.0
11
583.215
21
886.059
31
0.0
0
LINE
5
1ec8
8
0-0
6
CONTINUOUS
62
  7
10
583.215
20
886.059
30
0.0
11
583.182
21
885.947
31
0.0
0
LINE
5
1ec9
8
0-0
6
CONTINUOUS
62
  7
10
583.182
20
885.947
30
0.0
11
583.109
21
885.755
31
0.0
0
LINE
5
1eca
8
0-0
6
CONTINUOUS
62
  7
10
583.109
20
885.755
30
0.0
11
582.923
21
885.384
31
0.0
0
LINE
5
1ecb
8
0-0
6
CONTINUOUS
62
  7
10
582.923
20
885.384
30
0.0
11
582.691
21
885.012
31
0.0
0
LINE
5
1ecc
8
0-0
6
CONTINUOUS
62
  7
10
582.691
20
885.012
30
0.0
11
582.422
21
884.632
31
0.0
0
LINE
5
1ecd
8
0-0
6
CONTINUOUS
62
  7
10
582.422
20
884.632
30
0.0
11
582.261
21
884.417
31
0.0
0
LINE
5
1ece
8
0-0
6
CONTINUOUS
62
  7
10
582.261
20
884.417
30
0.0
11
582.119
21
884.229
31
0.0
0
LINE
5
1ecf
8
0-0
6
CONTINUOUS
62
  7
10
582.119
20
884.229
30
0.0
11
581.876
21
883.915
31
0.0
0
LINE
5
1ed0
8
0-0
6
CONTINUOUS
62
  7
10
581.876
20
883.915
30
0.0
11
581.618
21
883.597
31
0.0
0
LINE
5
1ed1
8
0-0
6
CONTINUOUS
62
  7
10
581.618
20
883.597
30
0.0
11
581.319
21
883.248
31
0.0
0
LINE
5
1ed2
8
0-0
6
CONTINUOUS
62
  7
10
581.319
20
883.248
30
0.0
11
581.117
21
883.023
31
0.0
0
LINE
5
1ed3
8
0-0
6
CONTINUOUS
62
  7
10
581.117
20
883.023
30
0.0
11
581.003
21
882.898
31
0.0
0
LINE
5
1ed4
8
0-0
6
CONTINUOUS
62
  7
10
581.003
20
882.898
30
0.0
11
580.783
21
882.652
31
0.0
0
LINE
5
1ed5
8
0-0
6
CONTINUOUS
62
  7
10
580.783
20
882.652
30
0.0
11
580.553
21
882.361
31
0.0
0
LINE
5
1ed6
8
0-0
6
CONTINUOUS
62
  7
10
580.553
20
882.361
30
0.0
11
580.322
21
881.938
31
0.0
0
LINE
5
1ed7
8
0-0
6
CONTINUOUS
62
  7
10
580.322
20
881.938
30
0.0
11
580.261
21
881.211
31
0.0
0
LINE
5
1ed8
8
0-0
6
CONTINUOUS
62
  7
10
580.261
20
881.211
30
0.0
11
580.889
21
880.551
31
0.0
0
LINE
5
1ed9
8
0-0
6
CONTINUOUS
62
  7
10
580.889
20
880.551
30
0.0
11
581.617
21
880.497
31
0.0
0
LINE
5
1eda
8
0-0
6
CONTINUOUS
62
  7
10
581.617
20
880.497
30
0.0
11
582.112
21
880.577
31
0.0
0
LINE
5
1edb
8
0-0
6
CONTINUOUS
62
  7
10
582.112
20
880.577
30
0.0
11
582.560
21
880.683
31
0.0
0
LINE
5
1edc
8
0-0
6
CONTINUOUS
62
  7
10
582.560
20
880.683
30
0.0
11
582.696
21
880.719
31
0.0
0
LINE
5
1edd
8
0-0
6
CONTINUOUS
62
  7
10
582.696
20
880.719
30
0.0
11
583.179
21
880.845
31
0.0
0
LINE
5
1ede
8
0-0
6
CONTINUOUS
62
  7
10
583.179
20
880.845
30
0.0
11
583.733
21
880.980
31
0.0
0
LINE
5
1edf
8
0-0
6
CONTINUOUS
62
  7
10
583.733
20
880.980
30
0.0
11
584.171
21
881.062
31
0.0
0
LINE
5
1ee0
8
0-0
6
CONTINUOUS
62
  7
10
584.171
20
881.062
30
0.0
11
584.565
21
881.096
31
0.0
0
LINE
5
1ee1
8
0-0
6
CONTINUOUS
62
  7
10
584.565
20
881.096
30
0.0
11
584.775
21
881.095
31
0.0
0
LINE
5
1ee2
8
0-0
6
CONTINUOUS
62
  7
10
584.775
20
881.095
30
0.0
11
584.968
21
881.081
31
0.0
0
LINE
5
1ee3
8
0-0
6
CONTINUOUS
62
  7
10
584.968
20
881.081
30
0.0
11
585.354
21
881.024
31
0.0
0
LINE
5
1ee4
8
0-0
6
CONTINUOUS
62
  7
10
585.354
20
881.024
30
0.0
11
585.734
21
880.929
31
0.0
0
LINE
5
1ee5
8
0-0
6
CONTINUOUS
62
  7
10
585.734
20
880.929
30
0.0
11
586.109
21
880.793
31
0.0
0
LINE
5
1ee6
8
0-0
6
CONTINUOUS
62
  7
10
586.109
20
880.793
30
0.0
11
586.287
21
880.709
31
0.0
0
LINE
5
1ee7
8
0-0
6
CONTINUOUS
62
  7
10
586.287
20
880.709
30
0.0
11
586.521
21
880.571
31
0.0
0
LINE
5
1ee8
8
0-0
6
CONTINUOUS
62
  7
10
586.521
20
880.571
30
0.0
11
586.927
21
880.257
31
0.0
0
LINE
5
1ee9
8
0-0
6
CONTINUOUS
62
  7
10
586.927
20
880.257
30
0.0
11
587.289
21
879.882
31
0.0
0
LINE
5
1eea
8
0-0
6
CONTINUOUS
62
  7
10
587.289
20
879.882
30
0.0
11
587.629
21
879.436
31
0.0
0
LINE
5
1eeb
8
0-0
6
CONTINUOUS
62
  7
10
587.629
20
879.436
30
0.0
11
587.804
21
879.166
31
0.0
0
LINE
5
1eec
8
0-0
6
CONTINUOUS
62
  7
10
587.804
20
879.166
30
0.0
11
587.937
21
878.939
31
0.0
0
LINE
5
1eed
8
0-0
6
CONTINUOUS
62
  7
10
587.937
20
878.939
30
0.0
11
588.149
21
878.523
31
0.0
0
LINE
5
1eee
8
0-0
6
CONTINUOUS
62
  7
10
588.149
20
878.523
30
0.0
11
588.315
21
878.114
31
0.0
0
LINE
5
1eef
8
0-0
6
CONTINUOUS
62
  7
10
588.315
20
878.114
30
0.0
11
588.436
21
877.698
31
0.0
0
LINE
5
1ef0
8
0-0
6
CONTINUOUS
62
  7
10
588.436
20
877.698
30
0.0
11
588.479
21
877.480
31
0.0
0
LINE
5
1ef1
8
0-0
6
CONTINUOUS
62
  7
10
588.479
20
877.480
30
0.0
11
588.510
21
877.221
31
0.0
0
LINE
5
1ef2
8
0-0
6
CONTINUOUS
62
  7
10
588.510
20
877.221
30
0.0
11
588.525
21
876.713
31
0.0
0
LINE
5
1ef3
8
0-0
6
CONTINUOUS
62
  7
10
588.525
20
876.713
30
0.0
11
588.499
21
876.172
31
0.0
0
LINE
5
1ef4
8
0-0
6
CONTINUOUS
62
  7
10
588.499
20
876.172
30
0.0
11
588.452
21
875.605
31
0.0
0
LINE
5
1ef5
8
0-0
6
CONTINUOUS
62
  7
10
588.452
20
875.605
30
0.0
11
588.420
21
875.244
31
0.0
0
LINE
5
1ef6
8
0-0
6
CONTINUOUS
62
  7
10
588.420
20
875.244
30
0.0
11
588.388
21
874.819
31
0.0
0
LINE
5
1ef7
8
0-0
6
CONTINUOUS
62
  7
10
588.388
20
874.819
30
0.0
11
588.347
21
874.118
31
0.0
0
LINE
5
1ef8
8
0-0
6
CONTINUOUS
62
  7
10
588.347
20
874.118
30
0.0
11
588.311
21
873.413
31
0.0
0
LINE
5
1ef9
8
0-0
6
CONTINUOUS
62
  7
10
588.311
20
873.413
30
0.0
11
588.275
21
872.742
31
0.0
0
LINE
5
1efa
8
0-0
6
CONTINUOUS
62
  7
10
588.275
20
872.742
30
0.0
11
588.250
21
872.349
31
0.0
0
LINE
5
1efb
8
0-0
6
CONTINUOUS
62
  7
10
588.250
20
872.349
30
0.0
11
588.229
21
872.078
31
0.0
0
LINE
5
1efc
8
0-0
6
CONTINUOUS
62
  7
10
588.229
20
872.078
30
0.0
11
588.185
21
871.608
31
0.0
0
LINE
5
1efd
8
0-0
6
CONTINUOUS
62
  7
10
588.185
20
871.608
30
0.0
11
588.128
21
871.147
31
0.0
0
LINE
5
1efe
8
0-0
6
CONTINUOUS
62
  7
10
588.128
20
871.147
30
0.0
11
588.055
21
870.690
31
0.0
0
LINE
5
1eff
8
0-0
6
CONTINUOUS
62
  7
10
588.055
20
870.690
30
0.0
11
588.007
21
870.439
31
0.0
0
LINE
5
1f00
8
0-0
6
CONTINUOUS
62
  7
10
588.007
20
870.439
30
0.0
11
587.942
21
870.148
31
0.0
0
LINE
5
1f01
8
0-0
6
CONTINUOUS
62
  7
10
587.942
20
870.148
30
0.0
11
587.809
21
869.616
31
0.0
0
LINE
5
1f02
8
0-0
6
CONTINUOUS
62
  7
10
587.809
20
869.616
30
0.0
11
587.668
21
869.065
31
0.0
0
LINE
5
1f03
8
0-0
6
CONTINUOUS
62
  7
10
587.668
20
869.065
30
0.0
11
587.536
21
868.487
31
0.0
0
LINE
5
1f04
8
0-0
6
CONTINUOUS
62
  7
10
587.536
20
868.487
30
0.0
11
587.470
21
868.130
31
0.0
0
LINE
5
1f05
8
0-0
6
CONTINUOUS
62
  7
10
587.470
20
868.130
30
0.0
11
587.428
21
867.847
31
0.0
0
LINE
5
1f06
8
0-0
6
CONTINUOUS
62
  7
10
587.428
20
867.847
30
0.0
11
587.376
21
867.379
31
0.0
0
LINE
5
1f07
8
0-0
6
CONTINUOUS
62
  7
10
587.376
20
867.379
30
0.0
11
587.340
21
866.918
31
0.0
0
LINE
5
1f08
8
0-0
6
CONTINUOUS
62
  7
10
587.340
20
866.918
30
0.0
11
587.314
21
866.471
31
0.0
0
LINE
5
1f09
8
0-0
6
CONTINUOUS
62
  7
10
587.314
20
866.471
30
0.0
11
587.300
21
866.223
31
0.0
0
LINE
5
1f0a
8
0-0
6
CONTINUOUS
62
  7
10
587.300
20
866.223
30
0.0
11
587.281
21
865.870
31
0.0
0
LINE
5
1f0b
8
0-0
6
CONTINUOUS
62
  7
10
587.281
20
865.870
30
0.0
11
587.254
21
865.266
31
0.0
0
LINE
5
1f0c
8
0-0
6
CONTINUOUS
62
  7
10
587.254
20
865.266
30
0.0
11
587.251
21
864.631
31
0.0
0
LINE
5
1f0d
8
0-0
6
CONTINUOUS
62
  7
10
587.251
20
864.631
30
0.0
11
587.294
21
863.983
31
0.0
0
LINE
5
1f0e
8
0-0
6
CONTINUOUS
62
  7
10
587.294
20
863.983
30
0.0
11
587.352
21
863.577
31
0.0
0
LINE
5
1f0f
8
0-0
6
CONTINUOUS
62
  7
10
587.352
20
863.577
30
0.0
11
587.472
21
863.045
31
0.0
0
LINE
5
1f10
8
0-0
6
CONTINUOUS
62
  7
10
587.472
20
863.045
30
0.0
11
587.768
21
862.196
31
0.0
0
LINE
5
1f11
8
0-0
6
CONTINUOUS
62
  7
10
587.768
20
862.196
30
0.0
11
588.167
21
861.387
31
0.0
0
LINE
5
1f12
8
0-0
6
CONTINUOUS
62
  7
10
588.167
20
861.387
30
0.0
11
588.633
21
860.641
31
0.0
0
LINE
5
1f13
8
0-0
6
CONTINUOUS
62
  7
10
588.633
20
860.641
30
0.0
11
588.936
21
860.221
31
0.0
0
LINE
5
1f14
8
0-0
6
CONTINUOUS
62
  7
10
588.936
20
860.221
30
0.0
11
589.276
21
859.792
31
0.0
0
LINE
5
1f15
8
0-0
6
CONTINUOUS
62
  7
10
589.276
20
859.792
30
0.0
11
589.558
21
859.476
31
0.0
0
LINE
5
1f16
8
0-0
6
CONTINUOUS
62
  7
10
905.338
20
558.378
30
0.0
11
905.338
21
508.378
31
0.0
0
LINE
5
1f17
8
0-0
6
CONTINUOUS
62
  7
10
1170.338
20
558.378
30
0.0
11
1170.338
21
508.378
31
0.0
0
LINE
5
1f18
8
0-0
6
CONTINUOUS
62
  7
10
905.338
20
508.378
30
0.0
11
905.338
21
438.378
31
0.0
0
LINE
5
1f19
8
0-0
6
CONTINUOUS
62
  7
10
905.338
20
438.378
30
0.0
11
923.338
21
438.378
31
0.0
0
LINE
5
1f1a
8
0-0
6
CONTINUOUS
62
  7
10
923.338
20
500.483
30
0.0
11
923.338
21
438.378
31
0.0
0
LINE
5
1f1b
8
0-0
6
CONTINUOUS
62
  7
10
905.338
20
454.378
30
0.0
11
923.338
21
454.378
31
0.0
0
LINE
5
1f1c
8
0-0
6
CONTINUOUS
62
  7
10
905.338
20
483.378
30
0.0
11
923.338
21
483.378
31
0.0
0
LINE
5
1f1d
8
0-0
6
CONTINUOUS
62
  7
10
1359.392
20
1117.838
30
0.0
11
1373.392
21
1117.838
31
0.0
0
LINE
5
1f1e
8
0-0
6
CONTINUOUS
62
  7
10
1359.392
20
827.838
30
0.0
11
1359.392
21
1117.838
31
0.0
0
LINE
5
1f1f
8
0-0
6
CONTINUOUS
62
  7
10
1373.392
20
840.444
30
0.0
11
1373.392
21
1117.838
31
0.0
0
LINE
5
1f20
8
0-0
6
CONTINUOUS
62
  7
10
1359.392
20
827.838
30
0.0
11
1409.392
21
822.583
31
0.0
0
LINE
5
1f21
8
0-0
6
CONTINUOUS
62
  7
10
1409.392
20
836.660
30
0.0
11
1409.392
21
822.583
31
0.0
0
LINE
5
1f22
8
0-0
6
CONTINUOUS
62
  7
10
1373.392
20
840.444
30
0.0
11
1409.392
21
836.660
31
0.0
0
LINE
5
1f23
8
0-0
6
CONTINUOUS
62
  7
10
625.608
20
1112.838
30
0.0
11
625.608
21
827.838
31
0.0
0
LINE
5
1f24
8
0-0
6
CONTINUOUS
62
  7
10
530.608
20
1275.946
30
0.0
11
625.608
21
1275.946
31
0.0
0
LINE
5
1f25
8
0-0
6
CONTINUOUS
62
  7
10
530.608
20
1166.487
30
0.0
11
530.608
21
1275.946
31
0.0
0
LINE
5
1f26
8
0-0
6
CONTINUOUS
62
  7
10
625.608
20
1166.487
30
0.0
11
625.608
21
1275.946
31
0.0
0
LINE
5
1f27
8
0-0
6
CONTINUOUS
62
  7
10
905.338
20
1275.946
30
0.0
11
1173.338
21
1275.946
31
0.0
0
LINE
5
1f28
8
0-0
6
CONTINUOUS
62
  7
10
905.338
20
1166.487
30
0.0
11
905.338
21
1275.946
31
0.0
0
LINE
5
1f29
8
0-0
6
CONTINUOUS
62
  7
10
1173.338
20
1166.487
30
0.0
11
1173.338
21
1275.946
31
0.0
0
LINE
5
1f2a
8
0-0
6
CONTINUOUS
62
  7
10
1359.392
20
1275.946
30
0.0
11
1373.392
21
1275.946
31
0.0
0
LINE
5
1f2b
8
0-0
6
CONTINUOUS
62
  7
10
1359.392
20
1166.487
30
0.0
11
1359.392
21
1275.946
31
0.0
0
LINE
5
1f2c
8
0-0
6
CONTINUOUS
62
  7
10
1373.392
20
1166.487
30
0.0
11
1373.392
21
1275.946
31
0.0
0
LINE
5
1f2d
8
0-0
6
CONTINUOUS
62
  7
10
905.338
20
1238.775
30
0.0
11
925.338
21
1238.775
31
0.0
0
LINE
5
1f2e
8
0-0
6
CONTINUOUS
62
  7
10
905.338
20
1166.487
30
0.0
11
905.338
21
1238.775
31
0.0
0
LINE
5
1f2f
8
0-0
6
CONTINUOUS
62
  7
10
925.338
20
1166.487
30
0.0
11
925.338
21
1238.775
31
0.0
0
LINE
5
1f30
8
0-0
6
CONTINUOUS
62
  7
10
925.338
20
1238.775
30
0.0
11
1173.338
21
1238.775
31
0.0
0
LINE
5
1f31
8
0-0
6
CONTINUOUS
62
  7
10
1173.338
20
1166.487
30
0.0
11
1173.338
21
1238.775
31
0.0
0
LINE
5
1f32
8
0-0
6
CONTINUOUS
62
  7
10
505.608
20
688.108
30
0.0
11
625.608
21
688.108
31
0.0
0
LINE
5
1f33
8
0-0
6
CONTINUOUS
62
  7
10
505.608
20
773.243
30
0.0
11
505.608
21
688.108
31
0.0
0
LINE
5
1f34
8
0-0
6
CONTINUOUS
62
  7
10
625.608
20
773.243
30
0.0
11
625.608
21
688.108
31
0.0
0
LINE
5
1f35
8
0-0
6
CONTINUOUS
62
  7
10
905.338
20
688.108
30
0.0
11
1170.338
21
688.108
31
0.0
0
LINE
5
1f36
8
0-0
6
CONTINUOUS
62
  7
10
905.338
20
773.243
30
0.0
11
905.338
21
688.108
31
0.0
0
LINE
5
1f37
8
0-0
6
CONTINUOUS
62
  7
10
1170.338
20
773.243
30
0.0
11
1170.338
21
688.108
31
0.0
0
LINE
5
1f38
8
0-0
6
CONTINUOUS
62
  7
10
1359.392
20
688.108
30
0.0
11
1409.392
21
688.108
31
0.0
0
LINE
5
1f39
8
0-0
6
CONTINUOUS
62
  7
10
1359.392
20
773.243
30
0.0
11
1359.392
21
688.108
31
0.0
0
LINE
5
1f3a
8
0-0
6
CONTINUOUS
62
  7
10
1409.392
20
773.243
30
0.0
11
1409.392
21
688.108
31
0.0
0
LINE
5
1f3b
8
0-0
6
CONTINUOUS
62
  7
10
905.338
20
270.541
30
0.0
11
1170.338
21
270.541
31
0.0
0
LINE
5
1f3c
8
0-0
6
CONTINUOUS
62
  7
10
905.338
20
392.162
30
0.0
11
905.338
21
270.541
31
0.0
0
LINE
5
1f3d
8
0-0
6
CONTINUOUS
62
  7
10
1170.338
20
392.162
30
0.0
11
1170.338
21
270.541
31
0.0
0
LINE
5
1f3e
8
0-0
6
CONTINUOUS
62
  7
10
795.878
20
1117.838
30
0.0
11
795.878
21
827.838
31
0.0
0
LINE
5
1f3f
8
0-0
6
CONTINUOUS
62
  7
10
876.959
20
1117.838
30
0.0
11
795.878
21
1117.838
31
0.0
0
LINE
5
1f40
8
0-0
6
CONTINUOUS
62
  7
10
876.959
20
827.838
30
0.0
11
795.878
21
827.838
31
0.0
0
LINE
5
1f41
8
0-0
6
CONTINUOUS
62
  7
10
795.878
20
558.378
30
0.0
11
795.878
21
438.378
31
0.0
0
LINE
5
1f42
8
0-0
6
CONTINUOUS
62
  7
10
876.959
20
558.378
30
0.0
11
795.878
21
558.378
31
0.0
0
LINE
5
1f43
8
0-0
6
CONTINUOUS
62
  7
10
876.959
20
438.378
30
0.0
11
795.878
21
438.378
31
0.0
0
LINE
5
1f44
8
0-0
6
CONTINUOUS
62
  7
10
831.144
20
1117.838
30
0.0
11
831.144
21
1112.838
31
0.0
0
LINE
5
1f45
8
0-0
6
CONTINUOUS
62
  7
10
876.959
20
1117.838
30
0.0
11
831.144
21
1117.838
31
0.0
0
LINE
5
1f46
8
0-0
6
CONTINUOUS
62
  7
10
876.959
20
1112.838
30
0.0
11
831.144
21
1112.838
31
0.0
0
LINE
5
1f47
8
0-0
6
CONTINUOUS
62
  7
10
831.144
20
1112.838
30
0.0
11
831.144
21
827.838
31
0.0
0
LINE
5
1f48
8
0-0
6
CONTINUOUS
62
  7
10
876.959
20
827.838
30
0.0
11
831.144
21
827.838
31
0.0
0
LINE
5
1f49
8
0-0
6
CONTINUOUS
62
  7
10
831.144
20
558.378
30
0.0
11
831.144
21
508.378
31
0.0
0
LINE
5
1f4a
8
0-0
6
CONTINUOUS
62
  7
10
876.959
20
558.378
30
0.0
11
831.144
21
558.378
31
0.0
0
LINE
5
1f4b
8
0-0
6
CONTINUOUS
62
  7
10
876.959
20
508.378
30
0.0
11
831.144
21
508.378
31
0.0
0
LINE
5
1f4c
8
0-0
6
CONTINUOUS
62
  7
10
714.797
20
827.838
30
0.0
11
714.797
21
1112.838
31
0.0
0
LINE
5
1f4d
8
0-0
6
CONTINUOUS
62
  7
10
666.149
20
827.838
30
0.0
11
714.797
21
827.838
31
0.0
0
LINE
5
1f4e
8
0-0
6
CONTINUOUS
62
  7
10
666.149
20
1112.838
30
0.0
11
714.797
21
1112.838
31
0.0
0
LINE
5
1f4f
8
0-0
6
CONTINUOUS
62
  7
10
905.338
20
1112.838
30
0.0
11
905.338
21
827.838
31
0.0
0
LINE
5
1f50
8
ADD_LINE
6
HIDDEN
62
  3
10
1130.338
20
567.097
30
0.0
11
1130.338
21
520.295
31
0.0
0
LINE
5
1f51
8
ADD_LINE
6
HIDDEN
62
  3
10
1130.338
20
542.616
30
0.0
11
1116.437
21
542.616
31
0.0
0
LINE
5
1f52
8
ADD_LINE
6
HIDDEN
62
  3
10
1130.338
20
542.616
30
0.0
11
1146.001
21
542.616
31
0.0
0
LINE
5
1f53
8
ADD_LINE
6
HIDDEN
62
  3
10
1037.838
20
478.378
30
0.0
11
1062.279
21
478.378
31
0.0
0
LINE
5
1f54
8
ADD_LINE
6
HIDDEN
62
  3
10
1037.838
20
478.378
30
0.0
11
1013.289
21
478.378
31
0.0
0
LINE
5
1f55
8
ADD_LINE
6
HIDDEN
62
  3
10
1037.838
20
493.784
30
0.0
11
1037.838
21
463.143
31
0.0
0
CIRCLE
5
1f56
8
0-0
6
CONTINUOUS
62
  7
10
988.338
20
1097.838
30
0.0
40
3.000
0
CIRCLE
5
1f57
8
0-0
6
CONTINUOUS
62
  7
10
1088.338
20
1097.838
30
0.0
40
3.000
0
ARC
5
1f58
8
0-0
6
CONTINUOUS
62
  7
10
564.608
20
827.838
30
0.0
40
20.000
50
360.000000
51
450.000000
0
ARC
5
1f59
8
0-0
6
CONTINUOUS
62
  7
10
505.608
20
889.838
30
0.0
40
18.000
50
360.000000
51
450.000000
0
ARC
5
1f5a
8
0-0
6
CONTINUOUS
62
  7
10
548.608
20
899.338
30
0.0
40
26.744
50
560.806824
51
275.791199
0
ARC
5
1f5b
8
0-0
6
CONTINUOUS
62
  7
10
564.608
20
863.838
30
0.0
40
16.000
50
506.236389
51
270.000000
0
ARC
5
1f5c
8
0-0
6
CONTINUOUS
62
  7
10
479.890
20
937.036
30
0.0
40
68.824
50
385.340332
51
399.248779
0
ARC
5
1f5d
8
0-0
6
CONTINUOUS
62
  7
10
476.463
20
944.552
30
0.0
40
67.199
50
378.448792
51
392.421387
0
ARC
5
1f5e
8
0-0
6
CONTINUOUS
62
  7
10
590.080
20
906.294
30
0.0
40
4.610
50
438.613098
51
507.437378
0
ARC
5
1f5f
8
0-0
6
CONTINUOUS
62
  7
10
591.516
20
907.050
30
0.0
40
3.800
50
457.948059
51
538.623596
0
ARC
5
1f60
8
0-0
6
CONTINUOUS
62
  7
10
605.265
20
871.785
30
0.0
40
17.973
50
577.153564
51
601.436462
0
ARC
5
1f61
8
0-0
6
CONTINUOUS
62
  7
10
598.259
20
868.266
30
0.0
40
12.368
50
585.291321
51
622.626038
0
ARC
5
1f62
8
0-0
6
CONTINUOUS
62
  7
10
1037.838
20
835.983
30
0.0
40
307.604
50
244.484924
51
295.515076
0
ARC
5
1f63
8
0-0
6
CONTINUOUS
62
  7
10
1037.838
20
785.983
30
0.0
40
307.604
50
244.484940
51
295.515076
0
CIRCLE
5
1f64
8
ADD_LINE
6
HIDDEN
62
  3
10
1130.338
20
542.616
30
0.0
40
3.000
0
CIRCLE
5
1f65
8
ADD_LINE
6
HIDDEN
62
  3
10
1037.838
20
478.378
30
0.0
40
3.000
0
TEXT
5
1f66
100
AcDbEntity
8
0-0
62
7
100
AcDbText
10
571.858
20
1278.446
30
0.0
40
9.750
41
0.800
50
0.000
1
95
100
AcDbText
0
TEXT
5
1f67
100
AcDbEntity
8
0-0
62
7
100
AcDbText
10
1029.963
20
1278.446
30
0.0
40
9.750
41
0.800
50
0.000
1
268
100
AcDbText
0
TEXT
5
1f68
100
AcDbEntity
8
0-0
62
7
100
AcDbText
10
1360.142
20
1278.446
30
0.0
40
9.750
41
0.800
50
0.000
1
14
100
AcDbText
0
TEXT
5
1f69
100
AcDbEntity
8
0-0
62
7
100
AcDbText
10
909.088
20
1241.275
30
0.0
40
9.750
41
0.800
50
0.000
1
20
100
AcDbText
0
TEXT
5
1f6a
100
AcDbEntity
8
0-0
62
7
100
AcDbText
10
1039.963
20
1241.275
30
0.0
40
9.750
41
0.800
50
0.000
1
248
100
AcDbText
0
TEXT
5
1f6b
100
AcDbEntity
8
0-0
62
7
100
AcDbText
10
556.233
20
690.608
30
0.0
40
9.750
41
0.800
50
0.000
1
120
100
AcDbText
0
TEXT
5
1f6c
100
AcDbEntity
8
0-0
62
7
100
AcDbText
10
1028.463
20
690.608
30
0.0
40
9.750
41
0.800
50
0.000
1
265
100
AcDbText
0
TEXT
5
1f6d
100
AcDbEntity
8
0-0
62
7
100
AcDbText
10
1378.142
20
690.608
30
0.0
40
9.750
41
0.800
50
0.000
1
50
100
AcDbText
0
TEXT
5
1f6e
100
AcDbEntity
8
0-0
62
7
100
AcDbText
10
1028.463
20
273.041
30
0.0
40
9.750
41
0.800
50
0.000
1
265
100
AcDbText
0
TEXT
5
1f6f
100
AcDbEntity
8
0-0
62
7
100
AcDbText
10
793.378
20
963.463
30
0.0
40
9.750
41
0.800
50
90.000
1
290
100
AcDbText
0
TEXT
5
1f70
100
AcDbEntity
8
0-0
62
7
100
AcDbText
10
793.378
20
489.003
30
0.0
40
9.750
41
0.800
50
90.000
1
120
100
AcDbText
0
TEXT
5
1f71
100
AcDbEntity
8
0-0
62
7
100
AcDbText
10
828.644
20
1112.213
30
0.0
40
9.750
41
0.800
50
90.000
1
5
100
AcDbText
0
TEXT
5
1f72
100
AcDbEntity
8
0-0
62
7
100
AcDbText
10
828.644
20
960.963
30
0.0
40
9.750
41
0.800
50
90.000
1
285
100
AcDbText
0
TEXT
5
1f73
100
AcDbEntity
8
0-0
62
7
100
AcDbText
10
828.644
20
527.128
30
0.0
40
9.750
41
0.800
50
90.000
1
50
100
AcDbText
0
TEXT
5
1f74
100
AcDbEntity
8
0-0
62
7
100
AcDbText
10
712.297
20
960.963
30
0.0
40
9.750
41
0.800
50
90.000
1
285
100
AcDbText
0
POINT
5
1f75
8
0-0
62
  7
10
530.608
20
1275.946
30
0.0
0
POINT
5
1f76
8
0-0
62
  7
10
625.608
20
1275.946
30
0.0
0
POINT
5
1f77
8
0-0
62
  7
10
905.338
20
1275.946
30
0.0
0
POINT
5
1f78
8
0-0
62
  7
10
1173.338
20
1275.946
30
0.0
0
POINT
5
1f79
8
0-0
62
  7
10
1359.392
20
1275.946
30
0.0
0
POINT
5
1f7a
8
0-0
62
  7
10
1373.392
20
1275.946
30
0.0
0
POINT
5
1f7b
8
0-0
62
  7
10
905.338
20
1238.775
30
0.0
0
POINT
5
1f7c
8
0-0
62
  7
10
925.338
20
1238.775
30
0.0
0
POINT
5
1f7d
8
0-0
62
  7
10
1173.338
20
1238.775
30
0.0
0
POINT
5
1f7e
8
0-0
62
  7
10
505.608
20
688.108
30
0.0
0
POINT
5
1f7f
8
0-0
62
  7
10
625.608
20
688.108
30
0.0
0
POINT
5
1f80
8
0-0
62
  7
10
905.338
20
688.108
30
0.0
0
POINT
5
1f81
8
0-0
62
  7
10
1170.338
20
688.108
30
0.0
0
POINT
5
1f82
8
0-0
62
  7
10
1359.392
20
688.108
30
0.0
0
POINT
5
1f83
8
0-0
62
  7
10
1409.392
20
688.108
30
0.0
0
POINT
5
1f84
8
0-0
62
  7
10
905.338
20
270.541
30
0.0
0
POINT
5
1f85
8
0-0
62
  7
10
1170.338
20
270.541
30
0.0
0
POINT
5
1f86
8
0-0
62
  7
10
795.878
20
1117.838
30
0.0
0
POINT
5
1f87
8
0-0
62
  7
10
795.878
20
827.838
30
0.0
0
POINT
5
1f88
8
0-0
62
  7
10
795.878
20
558.378
30
0.0
0
POINT
5
1f89
8
0-0
62
  7
10
795.878
20
438.378
30
0.0
0
POINT
5
1f8a
8
0-0
62
  7
10
831.144
20
1117.838
30
0.0
0
POINT
5
1f8b
8
0-0
62
  7
10
831.144
20
1112.838
30
0.0
0
POINT
5
1f8c
8
0-0
62
  7
10
831.144
20
827.838
30
0.0
0
POINT
5
1f8d
8
0-0
62
  7
10
831.144
20
558.378
30
0.0
0
POINT
5
1f8e
8
0-0
62
  7
10
831.144
20
508.378
30
0.0
0
POINT
5
1f8f
8
0-0
62
  7
10
714.797
20
827.838
30
0.0
0
POINT
5
1f90
8
0-0
62
  7
10
714.797
20
1112.838
30
0.0
0
ENDSEC
0
EOF
