0
SECTION
2
HEADER
  9
$EXTMIN
10
0
20
0
30
0
  9
$EXTMAX
10
1432.602
20
1313.987
30
0
  9
$LTSCALE
40
5.000
  9
$DIMSCALE
40
5.000
  9
$PDMODE
70
0
  9
$PDSIZE
40
40
0
ENDSEC
0
SECTION
2
TABLES
0
TABLE
2
LTYPE
70
9
0
LTYPE
5
1f4
2
CONTINUOUS
70
0
3
実線
72
65
73
0
40
0.0
0
LTYPE
5
1f5
2
DOT
70
0
3
--  --  --  --  --  --  --  --     
72
65
73
2
40
5.000
49
1.000
49
-4.000
0
LTYPE
5
1f6
2
DASHED
70
0
3
----    ----    ----    ----    
72
65
73
2
40
5.000
49
2.000
49
-3.000
0
LTYPE
5
1f7
2
DASHED2
70
0
3
------  ------  ------  ------ 
72
65
73
2
40
10.000
49
4.000
49
-6.000
0
LTYPE
5
1f8
2
CENTER
70
0
3
----- - ----- - ----- - ----- - 
72
65
73
4
40
9.000
49
6.000
49
-1.000
49
1.000
49
-1.000
0
LTYPE
5
1f9
2
CENTER2
70
0
3
----------  --  ----------  -- 
72
65
73
4
40
18.000
49
12.000
49
-2.000
49
2.000
49
-2.000
0
LTYPE
5
1fa
2
PHANTOM
70
0
3
--- - - --- - - --- - - --- - -
72
65
73
6
40
10.000
49
5.000
49
-1.000
49
1.000
49
-1.000
49
1.000
49
-1.000
0
LTYPE
5
1fb
2
PHANTOM2
70
0
3
--------  -  -  --------  -  -
72
65
73
6
40
16.000
49
6.000
49
-2.000
49
2.000
49
-2.000
49
2.000
49
-2.000
0
LTYPE
5
1fc
2
HIDDEN
70
0
3
-   -   -   -   -   -   -   -   
72
65
73
2
40
2.500
49
0.500
49
-2.000
0
ENDTAB
0
TABLE
2
STYLE
70
1
0
STYLE
5
1fd
100
AcDbSymbolTableRecord
100
AcDbTextStyleTableRecord
2
STANDARD
70
0
40
0.0
41
1.0
50
0.0
71
0
42
0.0
3
txt.shx
4
extfont.shx
0
STYLE
5
1fe
100
AcDbSymbolTableRecord
100
AcDbTextStyleTableRecord
2
TATEGAKI
70
4
40
0.0
41
1.0
50
0.0
71
0
42
0.0
3
txt.shx
4
extfont.shx
0
STYLE
5
1ff
100
AcDbSymbolTableRecord
100
AcDbTextStyleTableRecord
2
MT
70
0
40
0.0
41
1.0
50
0.0
71
0
42
0.0
3
MS Mincho
4

0
STYLE
5
200
100
AcDbSymbolTableRecord
100
AcDbTextStyleTableRecord
2
TMT
70
4
40
0.0
41
1.0
50
0.0
71
0
42
0.0
3
@MS Mincho
4

0
ENDTAB
0
TABLE
2
LAYER
5
231d
100
AcDbSymbolTable
70
10
0
LAYER
5
231e
100
AcDbSymbolTableRecord
100
AcDbLayerTableRecord
2
0
70
64
62
  7
  6
CONTINUOUS
0
LAYER
5
231f
100
AcDbSymbolTableRecord
100
AcDbLayerTableRecord
2
0-0
70
64
62
  7
  6
CONTINUOUS
0
LAYER
5
2320
100
AcDbSymbolTableRecord
100
AcDbLayerTableRecord
2
ADD_LINE
70
64
62
  -7
  6
CONTINUOUS
0
ENDTAB
0
ENDSEC
0
SECTION
2
ENTITIES
0
LINE
5
2321
8
0-0
6
CONTINUOUS
62
  7
10
859.189
20
1115.946
30
0.0
11
889.189
21
1115.946
31
0.0
0
LINE
5
2322
8
0-0
6
CONTINUOUS
62
  7
10
889.189
20
1120.946
30
0.0
11
889.189
21
1115.946
31
0.0
0
LINE
5
2323
8
0-0
6
CONTINUOUS
62
  7
10
889.189
20
1120.946
30
0.0
11
1119.189
21
1120.946
31
0.0
0
LINE
5
2324
8
0-0
6
CONTINUOUS
62
  7
10
903.189
20
1120.946
30
0.0
11
903.189
21
1112.946
31
0.0
0
LINE
5
2325
8
0-0
6
CONTINUOUS
62
  7
10
859.189
20
385.297
30
0.0
11
876.189
21
385.297
31
0.0
0
LINE
5
2326
8
0-0
6
CONTINUOUS
62
  7
10
859.189
20
472.297
30
0.0
11
859.189
21
385.297
31
0.0
0
LINE
5
2327
8
ADD_LINE
6
HIDDEN
62
  3
10
989.189
20
410.747
30
0.0
11
989.189
21
378.205
31
0.0
0
LINE
5
2328
8
ADD_LINE
6
HIDDEN
62
  3
10
972.758
20
397.297
30
0.0
11
1011.717
21
397.297
31
0.0
0
LINE
5
2329
8
0-0
6
CONTINUOUS
62
  7
10
859.189
20
405.297
30
0.0
11
876.189
21
405.297
31
0.0
0
LINE
5
232a
8
0-0
6
CONTINUOUS
62
  7
10
924.189
20
442.336
30
0.0
11
924.189
21
411.667
31
0.0
0
LINE
5
232b
8
0-0
6
CONTINUOUS
62
  7
10
1062.189
20
444.202
30
0.0
11
1062.189
21
418.371
31
0.0
0
LINE
5
232c
8
0-0
6
CONTINUOUS
62
  7
10
929.189
20
436.185
30
0.0
11
929.189
21
415.679
31
0.0
0
LINE
5
232d
8
0-0
6
CONTINUOUS
62
  7
10
1057.189
20
437.881
30
0.0
11
1057.189
21
421.996
31
0.0
0
LINE
5
232e
8
0-0
6
CONTINUOUS
62
  7
10
930.189
20
434.970
30
0.0
11
930.189
21
416.489
31
0.0
0
LINE
5
232f
8
0-0
6
CONTINUOUS
62
  7
10
1056.189
20
436.632
30
0.0
11
1056.189
21
422.728
31
0.0
0
LINE
5
2330
8
0-0
6
CONTINUOUS
62
  7
10
859.189
20
1115.946
30
0.0
11
859.189
21
829.301
31
0.0
0
LINE
5
2331
8
0-0
6
CONTINUOUS
62
  7
10
859.189
20
829.301
30
0.0
11
859.189
21
825.946
31
0.0
0
LINE
5
2332
8
0-0
6
CONTINUOUS
62
  7
10
595.676
20
1115.946
30
0.0
11
530.676
21
1115.946
31
0.0
0
LINE
5
2333
8
0-0
6
CONTINUOUS
62
  7
10
595.676
20
825.946
30
0.0
11
550.676
21
825.946
31
0.0
0
LINE
5
2334
8
0-0
6
CONTINUOUS
62
  7
10
505.676
20
892.339
30
0.0
11
530.676
21
1115.946
31
0.0
0
LINE
5
2335
8
0-0
6
CONTINUOUS
62
  7
10
575.676
20
902.339
30
0.0
11
575.676
21
835.946
31
0.0
0
LINE
5
2336
8
0-0
6
CONTINUOUS
62
  7
10
506.794
20
902.339
30
0.0
11
575.676
21
902.339
31
0.0
0
LINE
5
2337
8
0-0
6
CONTINUOUS
62
  7
10
595.676
20
1115.946
30
0.0
11
595.676
21
825.946
31
0.0
0
LINE
5
2338
8
0-0
6
CONTINUOUS
62
  7
10
576.676
20
835.946
30
0.0
11
575.676
21
835.946
31
0.0
0
LINE
5
2339
8
0-0
6
CONTINUOUS
62
  7
10
506.794
20
903.339
30
0.0
11
576.676
21
903.339
31
0.0
0
LINE
5
233a
8
0-0
6
CONTINUOUS
62
  7
10
576.676
20
903.339
30
0.0
11
576.676
21
835.946
31
0.0
0
LINE
5
233b
8
0-0
6
CONTINUOUS
62
  7
10
1430.825
20
821.216
30
0.0
11
1432.602
21
838.123
31
0.0
0
LINE
5
233c
8
0-0
6
CONTINUOUS
62
  7
10
1385.825
20
825.946
30
0.0
11
1430.825
21
821.216
31
0.0
0
LINE
5
233d
8
0-0
6
CONTINUOUS
62
  7
10
1403.825
20
841.148
30
0.0
11
1432.602
21
838.123
31
0.0
0
LINE
5
233e
8
0-0
6
CONTINUOUS
62
  7
10
1403.825
20
1120.946
30
0.0
11
1403.825
21
841.148
31
0.0
0
LINE
5
233f
8
0-0
6
CONTINUOUS
62
  7
10
1383.825
20
1120.946
30
0.0
11
1383.825
21
1112.946
31
0.0
0
LINE
5
2340
8
0-0
6
CONTINUOUS
62
  7
10
1383.825
20
1112.946
30
0.0
11
1385.825
21
1112.946
31
0.0
0
LINE
5
2341
8
0-0
6
CONTINUOUS
62
  7
10
1385.825
20
1112.946
30
0.0
11
1385.825
21
825.946
31
0.0
0
LINE
5
2342
8
0-0
6
CONTINUOUS
62
  7
10
1385.825
20
825.946
30
0.0
11
1355.825
21
829.099
31
0.0
0
LINE
5
2343
8
0-0
6
CONTINUOUS
62
  7
10
1383.825
20
1112.946
30
0.0
11
1357.760
21
1112.946
31
0.0
0
LINE
5
2344
8
0-0
6
CONTINUOUS
62
  7
10
1357.760
20
1112.946
30
0.0
11
1357.760
21
1120.946
31
0.0
0
LINE
5
2345
8
0-0
6
CONTINUOUS
62
  7
10
1355.825
20
1115.946
30
0.0
11
1355.825
21
829.099
31
0.0
0
LINE
5
2346
8
0-0
6
CONTINUOUS
62
  7
10
1355.825
20
1115.946
30
0.0
11
1357.658
21
1115.946
31
0.0
0
LINE
5
2347
8
0-0
6
CONTINUOUS
62
  7
10
1357.760
20
1120.946
30
0.0
11
1403.825
21
1120.946
31
0.0
0
LINE
5
2348
8
0-0
6
CONTINUOUS
62
  7
10
530.676
20
1311.487
30
0.0
11
595.676
21
1311.487
31
0.0
0
LINE
5
2349
8
0-0
6
CONTINUOUS
62
  7
10
530.676
20
1161.487
30
0.0
11
530.676
21
1311.487
31
0.0
0
LINE
5
234a
8
0-0
6
CONTINUOUS
62
  7
10
595.676
20
1161.487
30
0.0
11
595.676
21
1311.487
31
0.0
0
LINE
5
234b
8
0-0
6
CONTINUOUS
62
  7
10
859.189
20
1311.487
30
0.0
11
1119.189
21
1311.487
31
0.0
0
LINE
5
234c
8
0-0
6
CONTINUOUS
62
  7
10
859.189
20
1161.487
30
0.0
11
859.189
21
1311.487
31
0.0
0
LINE
5
234d
8
0-0
6
CONTINUOUS
62
  7
10
1119.189
20
1161.487
30
0.0
11
1119.189
21
1311.487
31
0.0
0
LINE
5
234e
8
0-0
6
CONTINUOUS
62
  7
10
1385.825
20
1311.487
30
0.0
11
1403.825
21
1311.487
31
0.0
0
LINE
5
234f
8
0-0
6
CONTINUOUS
62
  7
10
1385.825
20
1161.487
30
0.0
11
1385.825
21
1311.487
31
0.0
0
LINE
5
2350
8
0-0
6
CONTINUOUS
62
  7
10
1403.825
20
1161.487
30
0.0
11
1403.825
21
1311.487
31
0.0
0
LINE
5
2351
8
0-0
6
CONTINUOUS
62
  7
10
1124.189
20
472.297
30
0.0
11
1124.189
21
436.297
31
0.0
0
LINE
5
2352
8
0-0
6
CONTINUOUS
62
  7
10
859.189
20
825.946
30
0.0
11
1124.189
21
825.946
31
0.0
0
LINE
5
2353
8
0-0
6
CONTINUOUS
62
  7
10
1119.189
20
1120.946
30
0.0
11
1124.189
21
825.946
31
0.0
0
LINE
5
2354
8
0-0
6
CONTINUOUS
62
  7
10
903.189
20
1112.946
30
0.0
11
1111.324
21
1112.946
31
0.0
0
LINE
5
2355
8
0-0
6
CONTINUOUS
62
  7
10
1111.324
20
1112.946
30
0.0
11
1115.527
21
864.946
31
0.0
0
LINE
5
2356
8
0-0
6
CONTINUOUS
62
  7
10
1115.527
20
864.946
30
0.0
11
1123.528
21
864.946
31
0.0
0
LINE
5
2357
8
0-0
6
CONTINUOUS
62
  7
10
1123.850
20
845.946
30
0.0
11
1103.850
21
825.946
31
0.0
0
LINE
5
2358
8
0-0
6
CONTINUOUS
62
  7
10
505.676
20
675.000
30
0.0
11
595.676
21
675.000
31
0.0
0
LINE
5
2359
8
0-0
6
CONTINUOUS
62
  7
10
505.676
20
772.297
30
0.0
11
505.676
21
675.000
31
0.0
0
LINE
5
235a
8
0-0
6
CONTINUOUS
62
  7
10
595.676
20
772.297
30
0.0
11
595.676
21
675.000
31
0.0
0
LINE
5
235b
8
0-0
6
CONTINUOUS
62
  7
10
859.189
20
675.000
30
0.0
11
1124.189
21
675.000
31
0.0
0
LINE
5
235c
8
0-0
6
CONTINUOUS
62
  7
10
859.189
20
772.297
30
0.0
11
859.189
21
675.000
31
0.0
0
LINE
5
235d
8
0-0
6
CONTINUOUS
62
  7
10
1124.189
20
772.297
30
0.0
11
1124.189
21
675.000
31
0.0
0
LINE
5
235e
8
0-0
6
CONTINUOUS
62
  7
10
1385.825
20
675.000
30
0.0
11
1430.825
21
675.000
31
0.0
0
LINE
5
235f
8
0-0
6
CONTINUOUS
62
  7
10
1385.825
20
772.297
30
0.0
11
1385.825
21
675.000
31
0.0
0
LINE
5
2360
8
0-0
6
CONTINUOUS
62
  7
10
1430.825
20
772.297
30
0.0
11
1430.825
21
675.000
31
0.0
0
LINE
5
2361
8
0-0
6
CONTINUOUS
62
  7
10
697.027
20
1115.946
30
0.0
11
697.027
21
825.946
31
0.0
0
LINE
5
2362
8
0-0
6
CONTINUOUS
62
  7
10
636.216
20
1115.946
30
0.0
11
697.027
21
1115.946
31
0.0
0
LINE
5
2363
8
0-0
6
CONTINUOUS
62
  7
10
636.216
20
825.946
30
0.0
11
697.027
21
825.946
31
0.0
0
LINE
5
2364
8
0-0
6
CONTINUOUS
62
  7
10
749.730
20
1120.946
30
0.0
11
749.730
21
825.946
31
0.0
0
LINE
5
2365
8
0-0
6
CONTINUOUS
62
  7
10
834.865
20
1120.946
30
0.0
11
749.730
21
1120.946
31
0.0
0
LINE
5
2366
8
0-0
6
CONTINUOUS
62
  7
10
834.865
20
825.946
30
0.0
11
749.730
21
825.946
31
0.0
0
LINE
5
2367
8
0-0
6
CONTINUOUS
62
  7
10
781.904
20
1120.946
30
0.0
11
781.904
21
1115.946
31
0.0
0
LINE
5
2368
8
0-0
6
CONTINUOUS
62
  7
10
834.865
20
1120.946
30
0.0
11
781.904
21
1120.946
31
0.0
0
LINE
5
2369
8
0-0
6
CONTINUOUS
62
  7
10
834.865
20
1115.946
30
0.0
11
781.904
21
1115.946
31
0.0
0
LINE
5
236a
8
0-0
6
CONTINUOUS
62
  7
10
757.838
20
472.297
30
0.0
11
757.838
21
385.297
31
0.0
0
LINE
5
236b
8
0-0
6
CONTINUOUS
62
  7
10
834.865
20
472.297
30
0.0
11
757.838
21
472.297
31
0.0
0
LINE
5
236c
8
0-0
6
CONTINUOUS
62
  7
10
834.865
20
385.297
30
0.0
11
757.838
21
385.297
31
0.0
0
LINE
5
236d
8
0-0
6
CONTINUOUS
62
  7
10
781.904
20
472.297
30
0.0
11
781.904
21
427.297
31
0.0
0
LINE
5
236e
8
0-0
6
CONTINUOUS
62
  7
10
834.865
20
472.297
30
0.0
11
781.904
21
472.297
31
0.0
0
LINE
5
236f
8
0-0
6
CONTINUOUS
62
  7
10
834.865
20
427.297
30
0.0
11
781.904
21
427.297
31
0.0
0
LINE
5
2370
8
0-0
6
CONTINUOUS
62
  7
10
1197.210
20
472.297
30
0.0
11
1197.210
21
436.297
31
0.0
0
LINE
5
2371
8
0-0
6
CONTINUOUS
62
  7
10
1148.608
20
472.297
30
0.0
11
1197.210
21
472.297
31
0.0
0
LINE
5
2372
8
0-0
6
CONTINUOUS
62
  7
10
1148.608
20
436.297
30
0.0
11
1197.210
21
436.297
31
0.0
0
LINE
5
2373
8
0-0
6
CONTINUOUS
62
  7
10
1104.189
20
463.611
30
0.0
11
1124.189
21
457.297
31
0.0
0
LINE
5
2374
8
0-0
6
CONTINUOUS
62
  7
10
859.189
20
589.172
30
0.0
11
1124.189
21
589.172
31
0.0
0
LINE
5
2375
8
0-0
6
CONTINUOUS
62
  7
10
859.189
20
498.308
30
0.0
11
859.189
21
589.172
31
0.0
0
LINE
5
2376
8
0-0
6
CONTINUOUS
62
  7
10
1124.189
20
498.308
30
0.0
11
1124.189
21
589.172
31
0.0
0
LINE
5
2377
8
0-0
6
CONTINUOUS
62
  7
10
859.189
20
551.351
30
0.0
11
1084.189
21
551.351
31
0.0
0
LINE
5
2378
8
0-0
6
CONTINUOUS
62
  7
10
859.189
20
498.308
30
0.0
11
859.189
21
551.351
31
0.0
0
LINE
5
2379
8
0-0
6
CONTINUOUS
62
  7
10
1084.189
20
498.308
30
0.0
11
1084.189
21
551.351
31
0.0
0
LINE
5
237a
8
0-0
6
CONTINUOUS
62
  7
10
876.189
20
419.285
30
0.0
11
876.189
21
385.297
31
0.0
0
LINE
5
237b
8
ADD_LINE
6
HIDDEN
62
  3
10
1084.189
20
498.308
30
0.0
11
1084.189
21
413.514
31
0.0
0
CIRCLE
5
237c
8
0-0
6
CONTINUOUS
62
  7
10
949.189
20
1100.946
30
0.0
40
3.000
0
CIRCLE
5
237d
8
0-0
6
CONTINUOUS
62
  7
10
1052.189
20
1100.946
30
0.0
40
3.000
0
CIRCLE
5
237e
8
ADD_LINE
6
HIDDEN
62
  3
10
989.190
20
397.297
30
0.0
40
3.000
0
ARC
5
237f
8
0-0
6
CONTINUOUS
62
  7
10
1004.021
20
420.609
30
0.0
40
3.325
50
118.669327
51
162.529541
0
ARC
5
2380
8
0-0
6
CONTINUOUS
62
  7
10
1003.742
20
421.120
30
0.0
40
2.743
50
5.894485
51
118.669556
0
ARC
5
2381
8
0-0
6
CONTINUOUS
62
  7
10
997.596
20
420.486
30
0.0
40
8.921
50
299.185181
51
5.894394
0
ARC
5
2382
8
0-0
6
CONTINUOUS
62
  7
10
1000.435
20
418.631
30
0.0
40
4.675
50
356.162231
51
20.095398
0
ARC
5
2383
8
0-0
6
CONTINUOUS
62
  7
10
997.619
20
418.820
30
0.0
40
7.497
50
305.255981
51
356.162292
0
ARC
5
2384
8
0-0
6
CONTINUOUS
62
  7
10
1002.158
20
421.196
30
0.0
40
1.372
50
162.529739
51
350.784485
0
ARC
5
2385
8
0-0
6
CONTINUOUS
62
  7
10
1003.736
20
419.838
30
0.0
40
1.160
50
20.095261
51
101.137894
0
ARC
5
2386
8
0-0
6
CONTINUOUS
62
  7
10
1010.306
20
424.850
30
0.0
40
3.325
50
118.669327
51
162.529541
0
ARC
5
2387
8
0-0
6
CONTINUOUS
62
  7
10
1008.443
20
425.436
30
0.0
40
1.372
50
162.529739
51
350.784485
0
ARC
5
2388
8
0-0
6
CONTINUOUS
62
  7
10
1010.483
20
424.536
30
0.0
40
3.685
50
27.623322
51
118.737656
0
ARC
5
2389
8
0-0
6
CONTINUOUS
62
  7
10
1008.661
20
423.583
30
0.0
40
5.741
50
352.538086
51
27.623352
0
ARC
5
238a
8
0-0
6
CONTINUOUS
62
  7
10
1002.685
20
424.366
30
0.0
40
11.768
50
301.023010
51
352.538025
0
ARC
5
238b
8
0-0
6
CONTINUOUS
62
  7
10
1010.714
20
424.448
30
0.0
40
1.197
50
57.783249
51
140.024597
0
ARC
5
238c
8
0-0
6
CONTINUOUS
62
  7
10
1010.238
20
423.691
30
0.0
40
2.091
50
13.292587
51
57.783340
0
ARC
5
238d
8
0-0
6
CONTINUOUS
62
  7
10
1002.865
20
421.949
30
0.0
40
9.666
50
307.499268
51
13.292603
0
ARC
5
238e
8
0-0
6
CONTINUOUS
62
  7
10
1026.744
20
423.571
30
0.0
40
1.059
50
70.999924
51
284.594666
0
ARC
5
238f
8
0-0
6
CONTINUOUS
62
  7
10
1025.687
20
427.632
30
0.0
40
5.256
50
284.594360
51
317.841919
0
ARC
5
2390
8
0-0
6
CONTINUOUS
62
  7
10
1027.543
20
425.952
30
0.0
40
2.752
50
317.842133
51
88.084778
0
ARC
5
2391
8
0-0
6
CONTINUOUS
62
  7
10
1027.398
20
421.622
30
0.0
40
7.085
50
88.084595
51
144.448746
0
ARC
5
2392
8
0-0
6
CONTINUOUS
62
  7
10
1025.510
20
425.487
30
0.0
40
1.825
50
329.919250
51
96.700760
0
ARC
5
2393
8
0-0
6
CONTINUOUS
62
  7
10
1026.122
20
420.278
30
0.0
40
7.070
50
96.700546
51
129.401627
0
ARC
5
2394
8
0-0
6
CONTINUOUS
62
  7
10
1020.863
20
416.751
30
0.0
40
1.732
50
105.240036
51
245.231003
0
ARC
5
2395
8
0-0
6
CONTINUOUS
62
  7
10
1021.056
20
417.170
30
0.0
40
2.193
50
245.230499
51
347.897675
0
ARC
5
2396
8
0-0
6
CONTINUOUS
62
  7
10
1017.412
20
417.951
30
0.0
40
5.920
50
347.897827
51
23.524200
0
ARC
5
2397
8
0-0
6
CONTINUOUS
62
  7
10
1020.483
20
419.288
30
0.0
40
2.570
50
23.523972
51
95.717041
0
ARC
5
2398
8
0-0
6
CONTINUOUS
62
  7
10
1020.901
20
415.111
30
0.0
40
6.768
50
95.716873
51
134.316071
0
ARC
5
2399
8
0-0
6
CONTINUOUS
62
  7
10
1017.569
20
417.359
30
0.0
40
2.946
50
21.140121
51
118.294769
0
ARC
5
239a
8
0-0
6
CONTINUOUS
62
  7
10
1036.474
20
422.444
30
0.0
40
1.964
50
194.560944
51
281.428284
0
ARC
5
239b
8
0-0
6
CONTINUOUS
62
  7
10
1036.003
20
424.771
30
0.0
40
4.339
50
281.428650
51
4.337677
0
ARC
5
239c
8
0-0
6
CONTINUOUS
62
  7
10
1035.236
20
424.713
30
0.0
40
5.109
50
4.337646
51
31.598572
0
ARC
5
239d
8
0-0
6
CONTINUOUS
62
  7
10
1036.402
20
425.431
30
0.0
40
3.739
50
31.598648
51
76.162277
0
ARC
5
239e
8
0-0
6
CONTINUOUS
62
  7
10
1033.641
20
414.220
30
0.0
40
15.285
50
76.162231
51
87.898865
0
ARC
5
239f
8
0-0
6
CONTINUOUS
62
  7
10
1032.978
20
424.002
30
0.0
40
5.627
50
27.324509
51
77.447830
0
ARC
5
23a0
8
0-0
6
CONTINUOUS
62
  7
10
1036.302
20
425.720
30
0.0
40
1.885
50
314.762085
51
27.325027
0
ARC
5
23a1
8
0-0
6
CONTINUOUS
62
  7
10
1036.641
20
422.487
30
0.0
40
2.137
50
62.412979
51
194.560898
0
ARC
5
23a2
8
0-0
6
CONTINUOUS
62
  7
10
1048.675
20
430.537
30
0.0
40
2.554
50
164.464676
51
224.605484
0
ARC
5
23a3
8
0-0
6
CONTINUOUS
62
  7
10
1049.175
20
430.398
30
0.0
40
3.073
50
75.783356
51
164.464722
0
ARC
5
23a4
8
0-0
6
CONTINUOUS
62
  7
10
1049.011
20
429.752
30
0.0
40
3.740
50
29.405350
51
75.783447
0
ARC
5
23a5
8
0-0
6
CONTINUOUS
62
  7
10
1048.539
20
429.486
30
0.0
40
4.282
50
358.669006
51
29.405548
0
ARC
5
23a6
8
0-0
6
CONTINUOUS
62
  7
10
1018.445
20
430.185
30
0.0
40
34.384
50
355.607056
51
358.669006
0
ARC
5
23a7
8
0-0
6
CONTINUOUS
62
  7
10
1048.948
20
427.842
30
0.0
40
3.792
50
312.097961
51
355.606873
0
ARC
5
23a8
8
0-0
6
CONTINUOUS
62
  7
10
1049.683
20
427.028
30
0.0
40
2.695
50
258.603699
51
312.097839
0
ARC
5
23a9
8
0-0
6
CONTINUOUS
62
  7
10
1050.533
20
431.244
30
0.0
40
6.996
50
237.413803
51
258.603638
0
ARC
5
23aa
8
0-0
6
CONTINUOUS
62
  7
10
1048.448
20
428.074
30
0.0
40
3.203
50
238.301224
51
313.787506
0
ARC
5
23ab
8
0-0
6
CONTINUOUS
62
  7
10
1047.854
20
429.727
30
0.0
40
1.401
50
224.605423
51
350.741547
0
ARC
5
23ac
8
0-0
6
CONTINUOUS
62
  7
10
1049.161
20
427.331
30
0.0
40
2.173
50
313.787659
51
88.016068
0
ARC
5
23ad
8
0-0
6
CONTINUOUS
62
  7
10
1047.200
20
424.397
30
0.0
40
3.677
50
149.772629
51
210.227783
0
ARC
5
23ae
8
0-0
6
CONTINUOUS
62
  7
10
1040.844
20
424.397
30
0.0
40
3.677
50
329.772217
51
30.227371
0
ARC
5
23af
8
0-0
6
CONTINUOUS
62
  7
10
981.298
20
659.768
30
0.0
40
254.590
50
257.037292
51
288.525818
0
ARC
5
23b0
8
0-0
6
CONTINUOUS
62
  7
10
989.189
20
738.964
30
0.0
40
303.667
50
257.640167
51
283.909851
0
ARC
5
23b1
8
0-0
6
CONTINUOUS
62
  7
10
981.298
20
659.768
30
0.0
40
249.590
50
257.949280
51
287.701843
0
ARC
5
23b2
8
0-0
6
CONTINUOUS
62
  7
10
989.189
20
738.964
30
0.0
40
308.667
50
258.791260
51
282.726776
0
ARC
5
23b3
8
0-0
6
CONTINUOUS
62
  7
10
989.189
20
738.964
30
0.0
40
309.667
50
259.016449
51
282.495392
0
ARC
5
23b4
8
0-0
6
CONTINUOUS
62
  7
10
981.298
20
659.768
30
0.0
40
248.590
50
258.135681
51
287.533569
0
ARC
5
23b5
8
0-0
6
CONTINUOUS
62
  7
10
993.787
20
419.770
30
0.0
40
4.833
50
133.603226
51
226.396774
0
ARC
5
23b6
8
0-0
6
CONTINUOUS
62
  7
10
987.120
20
419.770
30
0.0
40
4.833
50
313.603210
51
46.396774
0
ARC
5
23b7
8
0-0
6
CONTINUOUS
62
  7
10
995.652
20
411.275
30
0.0
40
4.833
50
433.603210
51
526.396790
0
ARC
5
23b8
8
0-0
6
CONTINUOUS
62
  7
10
992.318
20
417.048
30
0.0
40
4.833
50
613.603210
51
346.396790
0
ARC
5
23b9
8
0-0
6
CONTINUOUS
62
  7
10
985.256
20
411.275
30
0.0
40
4.833
50
373.603210
51
466.396759
0
ARC
5
23ba
8
0-0
6
CONTINUOUS
62
  7
10
988.589
20
417.048
30
0.0
40
4.833
50
553.603210
51
286.396759
0
ARC
5
23bb
8
0-0
6
CONTINUOUS
62
  7
10
976.886
20
419.146
30
0.0
40
3.325
50
377.470459
51
421.330688
0
ARC
5
23bc
8
0-0
6
CONTINUOUS
62
  7
10
977.166
20
419.657
30
0.0
40
2.743
50
421.330444
51
534.105530
0
ARC
5
23bd
8
0-0
6
CONTINUOUS
62
  7
10
983.311
20
419.023
30
0.0
40
8.921
50
534.105591
51
240.814804
0
ARC
5
23be
8
0-0
6
CONTINUOUS
62
  7
10
980.473
20
417.167
30
0.0
40
4.675
50
519.904602
51
183.837784
0
ARC
5
23bf
8
0-0
6
CONTINUOUS
62
  7
10
983.289
20
417.356
30
0.0
40
7.497
50
183.837708
51
234.744003
0
ARC
5
23c0
8
0-0
6
CONTINUOUS
62
  7
10
978.750
20
419.732
30
0.0
40
1.372
50
189.215500
51
377.470276
0
ARC
5
23c1
8
0-0
6
CONTINUOUS
62
  7
10
977.171
20
418.375
30
0.0
40
1.160
50
438.862122
51
519.904724
0
ARC
5
23c2
8
0-0
6
CONTINUOUS
62
  7
10
970.601
20
423.387
30
0.0
40
3.325
50
377.470459
51
421.330688
0
ARC
5
23c3
8
0-0
6
CONTINUOUS
62
  7
10
972.465
20
423.973
30
0.0
40
1.372
50
189.215500
51
377.470276
0
ARC
5
23c4
8
0-0
6
CONTINUOUS
62
  7
10
970.425
20
423.073
30
0.0
40
3.685
50
421.262329
51
512.376709
0
ARC
5
23c5
8
0-0
6
CONTINUOUS
62
  7
10
972.247
20
422.119
30
0.0
40
5.741
50
512.376648
51
187.461929
0
ARC
5
23c6
8
0-0
6
CONTINUOUS
62
  7
10
978.223
20
422.902
30
0.0
40
11.768
50
187.461960
51
238.977005
0
ARC
5
23c7
8
0-0
6
CONTINUOUS
62
  7
10
970.193
20
422.984
30
0.0
40
1.197
50
399.975403
51
482.216736
0
ARC
5
23c8
8
0-0
6
CONTINUOUS
62
  7
10
970.670
20
422.228
30
0.0
40
2.091
50
482.216675
51
526.707397
0
ARC
5
23c9
8
0-0
6
CONTINUOUS
62
  7
10
978.042
20
420.486
30
0.0
40
9.666
50
526.707397
51
232.500748
0
ARC
5
23ca
8
0-0
6
CONTINUOUS
62
  7
10
955.595
20
423.327
30
0.0
40
1.059
50
255.405319
51
469.000061
0
ARC
5
23cb
8
0-0
6
CONTINUOUS
62
  7
10
956.652
20
427.388
30
0.0
40
5.256
50
222.158081
51
255.405624
0
ARC
5
23cc
8
0-0
6
CONTINUOUS
62
  7
10
954.796
20
425.708
30
0.0
40
2.752
50
451.915222
51
222.157867
0
ARC
5
23cd
8
0-0
6
CONTINUOUS
62
  7
10
954.941
20
421.378
30
0.0
40
7.085
50
395.551270
51
451.915405
0
ARC
5
23ce
8
0-0
6
CONTINUOUS
62
  7
10
956.829
20
425.243
30
0.0
40
1.825
50
443.299255
51
210.080750
0
ARC
5
23cf
8
0-0
6
CONTINUOUS
62
  7
10
956.217
20
420.034
30
0.0
40
7.070
50
410.598389
51
443.299438
0
ARC
5
23d0
8
0-0
6
CONTINUOUS
62
  7
10
960.045
20
416.147
30
0.0
40
1.732
50
294.768982
51
434.759949
0
ARC
5
23d1
8
0-0
6
CONTINUOUS
62
  7
10
959.852
20
416.566
30
0.0
40
2.193
50
192.102325
51
294.769501
0
ARC
5
23d2
8
0-0
6
CONTINUOUS
62
  7
10
963.495
20
417.347
30
0.0
40
5.920
50
516.475830
51
192.102158
0
ARC
5
23d3
8
0-0
6
CONTINUOUS
62
  7
10
960.424
20
418.684
30
0.0
40
2.570
50
444.282959
51
516.476013
0
ARC
5
23d4
8
0-0
6
CONTINUOUS
62
  7
10
960.006
20
414.506
30
0.0
40
6.768
50
405.683929
51
444.283142
0
ARC
5
23d5
8
0-0
6
CONTINUOUS
62
  7
10
963.338
20
416.755
30
0.0
40
2.946
50
421.705231
51
518.859863
0
ARC
5
23d6
8
0-0
6
CONTINUOUS
62
  7
10
945.812
20
419.777
30
0.0
40
1.964
50
258.571716
51
345.439056
0
ARC
5
23d7
8
0-0
6
CONTINUOUS
62
  7
10
946.283
20
422.104
30
0.0
40
4.339
50
535.662354
51
258.571350
0
ARC
5
23d8
8
0-0
6
CONTINUOUS
62
  7
10
947.050
20
422.046
30
0.0
40
5.109
50
508.401428
51
535.662354
0
ARC
5
23d9
8
0-0
6
CONTINUOUS
62
  7
10
945.884
20
422.764
30
0.0
40
3.739
50
463.837708
51
508.401367
0
ARC
5
23da
8
0-0
6
CONTINUOUS
62
  7
10
948.645
20
411.553
30
0.0
40
15.285
50
452.101135
51
463.837769
0
ARC
5
23db
8
0-0
6
CONTINUOUS
62
  7
10
949.308
20
421.335
30
0.0
40
5.627
50
462.552185
51
512.675476
0
ARC
5
23dc
8
0-0
6
CONTINUOUS
62
  7
10
945.984
20
423.053
30
0.0
40
1.885
50
512.674988
51
225.237930
0
ARC
5
23dd
8
0-0
6
CONTINUOUS
62
  7
10
945.646
20
419.820
30
0.0
40
2.137
50
345.439087
51
477.587036
0
ARC
5
23de
8
0-0
6
CONTINUOUS
62
  7
10
934.758
20
429.243
30
0.0
40
2.554
50
315.394531
51
375.535339
0
ARC
5
23df
8
0-0
6
CONTINUOUS
62
  7
10
934.257
20
429.104
30
0.0
40
3.073
50
375.535278
51
464.216644
0
ARC
5
23e0
8
0-0
6
CONTINUOUS
62
  7
10
934.421
20
428.458
30
0.0
40
3.740
50
464.216553
51
510.594666
0
ARC
5
23e1
8
0-0
6
CONTINUOUS
62
  7
10
934.893
20
428.191
30
0.0
40
4.282
50
510.594452
51
181.330994
0
ARC
5
23e2
8
0-0
6
CONTINUOUS
62
  7
10
964.987
20
428.890
30
0.0
40
34.384
50
181.330978
51
184.392944
0
ARC
5
23e3
8
0-0
6
CONTINUOUS
62
  7
10
934.485
20
426.547
30
0.0
40
3.792
50
184.393143
51
227.902039
0
ARC
5
23e4
8
0-0
6
CONTINUOUS
62
  7
10
933.749
20
425.734
30
0.0
40
2.695
50
227.902145
51
281.396301
0
ARC
5
23e5
8
0-0
6
CONTINUOUS
62
  7
10
932.900
20
429.950
30
0.0
40
6.996
50
281.396362
51
302.586182
0
ARC
5
23e6
8
0-0
6
CONTINUOUS
62
  7
10
934.985
20
426.780
30
0.0
40
3.203
50
226.212494
51
301.698792
0
ARC
5
23e7
8
0-0
6
CONTINUOUS
62
  7
10
935.579
20
428.433
30
0.0
40
1.401
50
189.258453
51
315.394592
0
ARC
5
23e8
8
0-0
6
CONTINUOUS
62
  7
10
934.272
20
426.036
30
0.0
40
2.173
50
451.983948
51
226.212341
0
ARC
5
23e9
8
0-0
6
CONTINUOUS
62
  7
10
936.233
20
423.484
30
0.0
40
3.677
50
329.772217
51
390.227356
0
ARC
5
23ea
8
0-0
6
CONTINUOUS
62
  7
10
942.588
20
423.484
30
0.0
40
3.677
50
509.772644
51
210.227783
0
CIRCLE
5
23eb
8
0-0
6
CONTINUOUS
62
  7
10
990.454
20
432.477
30
0.0
40
1.500
0
CIRCLE
5
23ec
8
0-0
6
CONTINUOUS
62
  7
10
926.689
20
439.245
30
0.0
40
1.500
0
CIRCLE
5
23ed
8
0-0
6
CONTINUOUS
62
  7
10
942.630
20
436.358
30
0.0
40
1.500
0
CIRCLE
5
23ee
8
0-0
6
CONTINUOUS
62
  7
10
958.571
20
434.332
30
0.0
40
1.500
0
CIRCLE
5
23ef
8
0-0
6
CONTINUOUS
62
  7
10
974.513
20
433.149
30
0.0
40
1.500
0
CIRCLE
5
23f0
8
0-0
6
CONTINUOUS
62
  7
10
1007.763
20
433.361
30
0.0
40
1.500
0
CIRCLE
5
23f1
8
0-0
6
CONTINUOUS
62
  7
10
1025.072
20
434.907
30
0.0
40
1.500
0
CIRCLE
5
23f2
8
0-0
6
CONTINUOUS
62
  7
10
1042.380
20
437.453
30
0.0
40
1.500
0
CIRCLE
5
23f3
8
0-0
6
CONTINUOUS
62
  7
10
1059.689
20
441.025
30
0.0
40
1.500
0
CIRCLE
5
23f4
8
0-0
6
CONTINUOUS
62
  7
10
926.689
20
413.665
30
0.0
40
1.500
0
CIRCLE
5
23f5
8
0-0
6
CONTINUOUS
62
  7
10
942.630
20
410.662
30
0.0
40
1.500
0
CIRCLE
5
23f6
8
0-0
6
CONTINUOUS
62
  7
10
958.571
20
408.705
30
0.0
40
1.500
0
CIRCLE
5
23f7
8
0-0
6
CONTINUOUS
62
  7
10
974.513
20
407.770
30
0.0
40
1.500
0
CIRCLE
5
23f8
8
0-0
6
CONTINUOUS
62
  7
10
990.454
20
407.845
30
0.0
40
1.500
0
CIRCLE
5
23f9
8
0-0
6
CONTINUOUS
62
  7
10
1008.750
20
409.178
30
0.0
40
1.500
0
CIRCLE
5
23fa
8
0-0
6
CONTINUOUS
62
  7
10
1025.072
20
411.508
30
0.0
40
1.500
0
CIRCLE
5
23fb
8
0-0
6
CONTINUOUS
62
  7
10
1042.380
20
415.191
30
0.0
40
1.500
0
CIRCLE
5
23fc
8
0-0
6
CONTINUOUS
62
  7
10
1059.689
20
420.177
30
0.0
40
1.500
0
ARC
5
23fd
8
0-0
6
CONTINUOUS
62
  7
10
497.537
20
858.089
30
0.0
40
35.204
50
356.510437
51
76.632751
0
ARC
5
23fe
8
0-0
6
CONTINUOUS
62
  7
10
518.076
20
826.786
30
0.0
40
32.610
50
358.523438
51
63.404175
0
ARC
5
23ff
8
0-0
6
CONTINUOUS
62
  7
10
991.689
20
750.010
30
0.0
40
307.702
50
244.493607
51
295.506409
0
ARC
5
2400
8
0-0
6
CONTINUOUS
62
  7
10
983.624
20
669.279
30
0.0
40
272.102
50
242.786392
51
301.103882
0
TEXT
5
2401
100
AcDbEntity
8
0-0
62
7
100
AcDbText
10
556.926
20
1313.987
30
0.0
40
9.750
41
0.800
50
0.000
1
65
100
AcDbText
0
TEXT
5
2402
100
AcDbEntity
8
0-0
62
7
100
AcDbText
10
979.814
20
1313.987
30
0.0
40
9.750
41
0.800
50
0.000
1
260
100
AcDbText
0
TEXT
5
2403
100
AcDbEntity
8
0-0
62
7
100
AcDbText
10
1388.575
20
1313.987
30
0.0
40
9.750
41
0.800
50
0.000
1
18
100
AcDbText
0
TEXT
5
2404
100
AcDbEntity
8
0-0
62
7
100
AcDbText
10
544.426
20
677.500
30
0.0
40
9.750
41
0.800
50
0.000
1
90
100
AcDbText
0
TEXT
5
2405
100
AcDbEntity
8
0-0
62
7
100
AcDbText
10
982.314
20
677.500
30
0.0
40
9.750
41
0.800
50
0.000
1
265
100
AcDbText
0
TEXT
5
2406
100
AcDbEntity
8
0-0
62
7
100
AcDbText
10
1402.075
20
677.500
30
0.0
40
9.750
41
0.800
50
0.000
1
45
100
AcDbText
0
TEXT
5
2407
100
AcDbEntity
8
0-0
62
7
100
AcDbText
10
694.527
20
961.571
30
0.0
40
9.750
41
0.800
50
90.000
1
290
100
AcDbText
0
TEXT
5
2408
100
AcDbEntity
8
0-0
62
7
100
AcDbText
10
747.230
20
964.071
30
0.0
40
9.750
41
0.800
50
90.000
1
295
100
AcDbText
0
TEXT
5
2409
100
AcDbEntity
8
0-0
62
7
100
AcDbText
10
779.404
20
1115.321
30
0.0
40
9.750
41
0.800
50
90.000
1
5
100
AcDbText
0
TEXT
5
240a
100
AcDbEntity
8
0-0
62
7
100
AcDbText
10
755.338
20
422.547
30
0.0
40
9.750
41
0.800
50
90.000
1
87
100
AcDbText
0
TEXT
5
240b
100
AcDbEntity
8
0-0
62
7
100
AcDbText
10
779.404
20
443.547
30
0.0
40
9.750
41
0.800
50
90.000
1
45
100
AcDbText
0
TEXT
5
240c
100
AcDbEntity
8
0-0
62
7
100
AcDbText
10
1194.710
20
448.047
30
0.0
40
9.750
41
0.800
50
90.000
1
36
100
AcDbText
0
TEXT
5
240d
100
AcDbEntity
8
0-0
62
7
100
AcDbText
10
982.314
20
591.672
30
0.0
40
9.750
41
0.800
50
0.000
1
265
100
AcDbText
0
TEXT
5
240e
100
AcDbEntity
8
0-0
62
7
100
AcDbText
10
962.314
20
553.851
30
0.0
40
9.750
41
0.800
50
0.000
1
225
100
AcDbText
0
POINT
5
240f
8
0-0
62
  7
10
530.676
20
1311.487
30
0.0
0
POINT
5
2410
8
0-0
62
  7
10
595.676
20
1311.487
30
0.0
0
POINT
5
2411
8
0-0
62
  7
10
859.189
20
1311.487
30
0.0
0
POINT
5
2412
8
0-0
62
  7
10
1119.189
20
1311.487
30
0.0
0
POINT
5
2413
8
0-0
62
  7
10
1385.825
20
1311.487
30
0.0
0
POINT
5
2414
8
0-0
62
  7
10
1403.825
20
1311.487
30
0.0
0
POINT
5
2415
8
0-0
62
  7
10
505.676
20
675.000
30
0.0
0
POINT
5
2416
8
0-0
62
  7
10
595.676
20
675.000
30
0.0
0
POINT
5
2417
8
0-0
62
  7
10
859.189
20
675.000
30
0.0
0
POINT
5
2418
8
0-0
62
  7
10
1124.189
20
675.000
30
0.0
0
POINT
5
2419
8
0-0
62
  7
10
1385.825
20
675.000
30
0.0
0
POINT
5
241a
8
0-0
62
  7
10
1430.825
20
675.000
30
0.0
0
POINT
5
241b
8
0-0
62
  7
10
697.027
20
1115.946
30
0.0
0
POINT
5
241c
8
0-0
62
  7
10
697.027
20
825.946
30
0.0
0
POINT
5
241d
8
0-0
62
  7
10
749.730
20
1120.946
30
0.0
0
POINT
5
241e
8
0-0
62
  7
10
749.730
20
825.946
30
0.0
0
POINT
5
241f
8
0-0
62
  7
10
781.904
20
1120.946
30
0.0
0
POINT
5
2420
8
0-0
62
  7
10
781.904
20
1115.946
30
0.0
0
POINT
5
2421
8
0-0
62
  7
10
757.838
20
472.297
30
0.0
0
POINT
5
2422
8
0-0
62
  7
10
757.838
20
385.297
30
0.0
0
POINT
5
2423
8
0-0
62
  7
10
781.904
20
472.297
30
0.0
0
POINT
5
2424
8
0-0
62
  7
10
781.904
20
427.297
30
0.0
0
POINT
5
2425
8
0-0
62
  7
10
1197.210
20
472.297
30
0.0
0
POINT
5
2426
8
0-0
62
  7
10
1197.210
20
436.297
30
0.0
0
POINT
5
2427
8
0-0
62
  7
10
859.189
20
589.172
30
0.0
0
POINT
5
2428
8
0-0
62
  7
10
1124.189
20
589.172
30
0.0
0
POINT
5
2429
8
0-0
62
  7
10
859.189
20
551.351
30
0.0
0
POINT
5
242a
8
0-0
62
  7
10
1084.189
20
551.351
30
0.0
0
ENDSEC
0
EOF
