0
SECTION
2
HEADER
  9
$EXTMIN
10
0
20
0
30
0
  9
$EXTMAX
10
1827.676
20
1218.716
30
0
  9
$LTSCALE
40
5.000
  9
$DIMSCALE
40
5.000
  9
$PDMODE
70
0
  9
$PDSIZE
40
40
0
ENDSEC
0
SECTION
2
TABLES
0
TABLE
2
LTYPE
70
9
0
LTYPE
5
1f4
2
CONTINUOUS
70
0
3
実線
72
65
73
0
40
0.0
0
LTYPE
5
1f5
2
DOT
70
0
3
--  --  --  --  --  --  --  --     
72
65
73
2
40
5.000
49
1.000
49
-4.000
0
LTYPE
5
1f6
2
DASHED
70
0
3
----    ----    ----    ----    
72
65
73
2
40
5.000
49
2.000
49
-3.000
0
LTYPE
5
1f7
2
DASHED2
70
0
3
------  ------  ------  ------ 
72
65
73
2
40
10.000
49
4.000
49
-6.000
0
LTYPE
5
1f8
2
CENTER
70
0
3
----- - ----- - ----- - ----- - 
72
65
73
4
40
9.000
49
6.000
49
-1.000
49
1.000
49
-1.000
0
LTYPE
5
1f9
2
CENTER2
70
0
3
----------  --  ----------  -- 
72
65
73
4
40
18.000
49
12.000
49
-2.000
49
2.000
49
-2.000
0
LTYPE
5
1fa
2
PHANTOM
70
0
3
--- - - --- - - --- - - --- - -
72
65
73
6
40
10.000
49
5.000
49
-1.000
49
1.000
49
-1.000
49
1.000
49
-1.000
0
LTYPE
5
1fb
2
PHANTOM2
70
0
3
--------  -  -  --------  -  -
72
65
73
6
40
16.000
49
6.000
49
-2.000
49
2.000
49
-2.000
49
2.000
49
-2.000
0
LTYPE
5
1fc
2
HIDDEN
70
0
3
-   -   -   -   -   -   -   -   
72
65
73
2
40
2.500
49
0.500
49
-2.000
0
ENDTAB
0
TABLE
2
STYLE
70
1
0
STYLE
5
1fd
100
AcDbSymbolTableRecord
100
AcDbTextStyleTableRecord
2
STANDARD
70
0
40
0.0
41
1.0
50
0.0
71
0
42
0.0
3
txt.shx
4
extfont.shx
0
STYLE
5
1fe
100
AcDbSymbolTableRecord
100
AcDbTextStyleTableRecord
2
TATEGAKI
70
4
40
0.0
41
1.0
50
0.0
71
0
42
0.0
3
txt.shx
4
extfont.shx
0
STYLE
5
1ff
100
AcDbSymbolTableRecord
100
AcDbTextStyleTableRecord
2
MT
70
0
40
0.0
41
1.0
50
0.0
71
0
42
0.0
3
MS Mincho
4

0
STYLE
5
200
100
AcDbSymbolTableRecord
100
AcDbTextStyleTableRecord
2
TMT
70
4
40
0.0
41
1.0
50
0.0
71
0
42
0.0
3
@MS Mincho
4

0
ENDTAB
0
TABLE
2
LAYER
5
263e
100
AcDbSymbolTable
70
10
0
LAYER
5
263f
100
AcDbSymbolTableRecord
100
AcDbLayerTableRecord
2
0
70
64
62
  7
  6
CONTINUOUS
0
LAYER
5
2640
100
AcDbSymbolTableRecord
100
AcDbLayerTableRecord
2
0-0
70
64
62
  7
  6
CONTINUOUS
0
LAYER
5
2641
100
AcDbSymbolTableRecord
100
AcDbLayerTableRecord
2
ADD_LINE
70
64
62
  -7
  6
CONTINUOUS
0
ENDTAB
0
ENDSEC
0
SECTION
2
ENTITIES
0
LINE
5
2642
8
0-0
6
CONTINUOUS
62
  7
10
1323.487
20
727.568
30
0.0
11
1198.486
21
734.568
31
0.0
0
LINE
5
2643
8
0-0
6
CONTINUOUS
62
  7
10
1323.487
20
727.568
30
0.0
11
1498.486
21
727.568
31
0.0
0
LINE
5
2644
8
0-0
6
CONTINUOUS
62
  7
10
1198.486
20
977.568
30
0.0
11
1198.486
21
734.568
31
0.0
0
LINE
5
2645
8
0-0
6
CONTINUOUS
62
  7
10
1198.486
20
977.568
30
0.0
11
1248.486
21
977.568
31
0.0
0
LINE
5
2646
8
0-0
6
CONTINUOUS
62
  7
10
1248.486
20
1017.568
30
0.0
11
1248.486
21
977.568
31
0.0
0
LINE
5
2647
8
0-0
6
CONTINUOUS
62
  7
10
1288.487
20
1017.568
30
0.0
11
1288.487
21
1009.568
31
0.0
0
LINE
5
2648
8
0-0
6
CONTINUOUS
62
  7
10
1288.487
20
1009.568
30
0.0
11
1468.486
21
1009.568
31
0.0
0
LINE
5
2649
8
0-0
6
CONTINUOUS
62
  7
10
1468.486
20
1017.568
30
0.0
11
1468.486
21
1009.568
31
0.0
0
LINE
5
264a
8
0-0
6
CONTINUOUS
62
  7
10
1498.486
20
1012.568
30
0.0
11
1498.486
21
727.568
31
0.0
0
LINE
5
264b
8
0-0
6
CONTINUOUS
62
  7
10
1248.486
20
1017.568
30
0.0
11
1468.486
21
1017.568
31
0.0
0
LINE
5
264c
8
0-0
6
CONTINUOUS
62
  7
10
1468.486
20
1012.568
30
0.0
11
1498.486
21
1012.568
31
0.0
0
LINE
5
264d
8
0-0
6
CONTINUOUS
62
  7
10
1198.486
20
339.730
30
0.0
11
1198.486
21
336.730
31
0.0
0
LINE
5
264e
8
0-0
6
CONTINUOUS
62
  7
10
1198.486
20
336.730
30
0.0
11
1236.487
21
346.610
31
0.0
0
LINE
5
264f
8
0-0
6
CONTINUOUS
62
  7
10
1236.487
20
346.610
30
0.0
11
1236.487
21
344.730
31
0.0
0
LINE
5
2650
8
0-0
6
CONTINUOUS
62
  7
10
1198.486
20
336.730
30
0.0
11
1236.487
21
346.610
31
0.0
0
LINE
5
2651
8
0-0
6
CONTINUOUS
62
  7
10
1198.486
20
336.730
30
0.0
11
1198.486
21
361.730
31
0.0
0
LINE
5
2652
8
0-0
6
CONTINUOUS
62
  7
10
1236.487
20
279.730
30
0.0
11
1498.486
21
279.730
31
0.0
0
LINE
5
2653
8
0-0
6
CONTINUOUS
62
  7
10
1236.487
20
279.730
30
0.0
11
1498.486
21
279.730
31
0.0
0
LINE
5
2654
8
0-0
6
CONTINUOUS
62
  7
10
1498.486
20
369.730
30
0.0
11
1498.486
21
279.730
31
0.0
0
LINE
5
2655
8
0-0
6
CONTINUOUS
62
  7
10
501.189
20
339.730
30
0.0
11
501.189
21
336.730
31
0.0
0
LINE
5
2656
8
0-0
6
CONTINUOUS
62
  7
10
501.189
20
336.730
30
0.0
11
539.189
21
346.610
31
0.0
0
LINE
5
2657
8
0-0
6
CONTINUOUS
62
  7
10
539.189
20
346.610
30
0.0
11
539.189
21
344.730
31
0.0
0
LINE
5
2658
8
0-0
6
CONTINUOUS
62
  7
10
501.189
20
336.730
30
0.0
11
539.189
21
346.610
31
0.0
0
LINE
5
2659
8
0-0
6
CONTINUOUS
62
  7
10
501.189
20
336.730
30
0.0
11
501.189
21
361.730
31
0.0
0
LINE
5
265a
8
0-0
6
CONTINUOUS
62
  7
10
539.189
20
279.730
30
0.0
11
539.189
21
344.730
31
0.0
0
LINE
5
265b
8
0-0
6
CONTINUOUS
62
  7
10
539.189
20
279.730
30
0.0
11
801.189
21
279.730
31
0.0
0
LINE
5
265c
8
0-0
6
CONTINUOUS
62
  7
10
539.189
20
279.730
30
0.0
11
801.189
21
279.730
31
0.0
0
LINE
5
265d
8
0-0
6
CONTINUOUS
62
  7
10
801.189
20
369.730
30
0.0
11
801.189
21
279.730
31
0.0
0
LINE
5
265e
8
0-0
6
CONTINUOUS
62
  7
10
236.189
20
339.730
30
0.0
11
236.189
21
336.730
31
0.0
0
LINE
5
265f
8
0-0
6
CONTINUOUS
62
  7
10
501.189
20
336.730
30
0.0
11
479.135
21
330.996
31
0.0
0
LINE
5
2660
8
0-0
6
CONTINUOUS
62
  7
10
236.189
20
336.730
30
0.0
11
274.189
21
346.610
31
0.0
0
LINE
5
2661
8
0-0
6
CONTINUOUS
62
  7
10
274.189
20
346.610
30
0.0
11
274.189
21
344.730
31
0.0
0
LINE
5
2662
8
0-0
6
CONTINUOUS
62
  7
10
236.189
20
336.730
30
0.0
11
274.189
21
346.610
31
0.0
0
LINE
5
2663
8
0-0
6
CONTINUOUS
62
  7
10
236.189
20
336.730
30
0.0
11
236.189
21
361.730
31
0.0
0
LINE
5
2664
8
0-0
6
CONTINUOUS
62
  7
10
274.189
20
279.730
30
0.0
11
274.189
21
344.730
31
0.0
0
LINE
5
2665
8
0-0
6
CONTINUOUS
62
  7
10
236.189
20
336.730
30
0.0
11
274.189
21
346.610
31
0.0
0
LINE
5
2666
8
0-0
6
CONTINUOUS
62
  7
10
539.189
20
279.730
30
0.0
11
539.189
21
346.610
31
0.0
0
LINE
5
2667
8
0-0
6
CONTINUOUS
62
  7
10
274.189
20
279.730
30
0.0
11
539.189
21
279.730
31
0.0
0
LINE
5
2668
8
0-0
6
CONTINUOUS
62
  7
10
501.189
20
336.730
30
0.0
11
539.189
21
346.610
31
0.0
0
LINE
5
2669
8
0-0
6
CONTINUOUS
62
  7
10
1737.676
20
1012.568
30
0.0
11
1802.676
21
1012.568
31
0.0
0
LINE
5
266a
8
0-0
6
CONTINUOUS
62
  7
10
1737.676
20
1012.568
30
0.0
11
1737.676
21
722.568
31
0.0
0
LINE
5
266b
8
0-0
6
CONTINUOUS
62
  7
10
1737.676
20
722.568
30
0.0
11
1827.676
21
706.698
31
0.0
0
LINE
5
266c
8
0-0
6
CONTINUOUS
62
  7
10
1827.676
20
706.698
30
0.0
11
1802.676
21
1012.568
31
0.0
0
LINE
5
266d
8
0-0
6
CONTINUOUS
62
  7
10
1757.676
20
719.041
30
0.0
11
1757.676
21
779.568
31
0.0
0
LINE
5
266e
8
0-0
6
CONTINUOUS
62
  7
10
1758.676
20
719.041
30
0.0
11
1758.676
21
778.568
31
0.0
0
LINE
5
266f
8
0-0
6
CONTINUOUS
62
  7
10
1758.676
20
778.568
30
0.0
11
1821.802
21
778.568
31
0.0
0
LINE
5
2670
8
0-0
6
CONTINUOUS
62
  7
10
1757.676
20
779.568
30
0.0
11
1821.720
21
779.568
31
0.0
0
LINE
5
2671
8
0-0
6
CONTINUOUS
62
  7
10
924.513
20
745.883
30
0.0
11
915.513
21
723.988
31
0.0
0
LINE
5
2672
8
0-0
6
CONTINUOUS
62
  7
10
955.513
20
751.350
30
0.0
11
924.513
21
745.883
31
0.0
0
LINE
5
2673
8
0-0
6
CONTINUOUS
62
  7
10
975.513
20
734.568
30
0.0
11
915.513
21
723.988
31
0.0
0
LINE
5
2674
8
0-0
6
CONTINUOUS
62
  7
10
955.513
20
1017.568
30
0.0
11
955.513
21
751.350
31
0.0
0
LINE
5
2675
8
0-0
6
CONTINUOUS
62
  7
10
975.513
20
1017.568
30
0.0
11
955.513
21
1017.568
31
0.0
0
LINE
5
2676
8
0-0
6
CONTINUOUS
62
  7
10
975.513
20
1009.568
30
0.0
11
978.513
21
1009.568
31
0.0
0
LINE
5
2677
8
0-0
6
CONTINUOUS
62
  7
10
975.513
20
1009.568
30
0.0
11
975.513
21
734.568
31
0.0
0
LINE
5
2678
8
0-0
6
CONTINUOUS
62
  7
10
975.513
20
734.568
30
0.0
11
1008.513
21
740.386
31
0.0
0
LINE
5
2679
8
0-0
6
CONTINUOUS
62
  7
10
978.513
20
1009.568
30
0.0
11
1005.693
21
1009.568
31
0.0
0
LINE
5
267a
8
0-0
6
CONTINUOUS
62
  7
10
1008.513
20
1012.568
30
0.0
11
1008.513
21
740.386
31
0.0
0
LINE
5
267b
8
0-0
6
CONTINUOUS
62
  7
10
1005.693
20
1012.568
30
0.0
11
1008.513
21
1012.568
31
0.0
0
LINE
5
267c
8
0-0
6
CONTINUOUS
62
  7
10
978.513
20
1017.568
30
0.0
11
978.513
21
1009.568
31
0.0
0
LINE
5
267d
8
0-0
6
CONTINUOUS
62
  7
10
1236.487
20
279.730
30
0.0
11
1236.487
21
289.060
31
0.0
0
LINE
5
267e
8
0-0
6
CONTINUOUS
62
  7
10
1236.487
20
289.507
30
0.0
11
1236.487
21
344.730
31
0.0
0
LINE
5
267f
8
ADD_LINE
6
HIDDEN
62
  3
10
1236.487
20
292.642
30
0.0
11
1236.487
21
250.552
31
0.0
0
LINE
5
2680
8
ADD_LINE
6
HIDDEN
62
  3
10
1236.487
20
279.730
30
0.0
11
1221.504
21
279.730
31
0.0
0
LINE
5
2681
8
0-0
6
CONTINUOUS
62
  7
10
955.513
20
1216.216
30
0.0
11
975.513
21
1216.216
31
0.0
0
LINE
5
2682
8
0-0
6
CONTINUOUS
62
  7
10
955.513
20
1058.108
30
0.0
11
955.513
21
1216.216
31
0.0
0
LINE
5
2683
8
0-0
6
CONTINUOUS
62
  7
10
975.513
20
1058.108
30
0.0
11
975.513
21
1216.216
31
0.0
0
LINE
5
2684
8
0-0
6
CONTINUOUS
62
  7
10
1198.486
20
1216.216
30
0.0
11
1498.486
21
1216.216
31
0.0
0
LINE
5
2685
8
0-0
6
CONTINUOUS
62
  7
10
1198.486
20
1058.108
30
0.0
11
1198.486
21
1216.216
31
0.0
0
LINE
5
2686
8
0-0
6
CONTINUOUS
62
  7
10
1498.486
20
1058.108
30
0.0
11
1498.486
21
1216.216
31
0.0
0
LINE
5
2687
8
0-0
6
CONTINUOUS
62
  7
10
1737.676
20
1216.216
30
0.0
11
1802.676
21
1216.216
31
0.0
0
LINE
5
2688
8
0-0
6
CONTINUOUS
62
  7
10
1737.676
20
1058.108
30
0.0
11
1737.676
21
1216.216
31
0.0
0
LINE
5
2689
8
0-0
6
CONTINUOUS
62
  7
10
1802.676
20
1058.108
30
0.0
11
1802.676
21
1216.216
31
0.0
0
LINE
5
268a
8
0-0
6
CONTINUOUS
62
  7
10
1198.486
20
1171.622
30
0.0
11
1248.486
21
1171.622
31
0.0
0
LINE
5
268b
8
0-0
6
CONTINUOUS
62
  7
10
1198.486
20
1058.108
30
0.0
11
1198.486
21
1171.622
31
0.0
0
LINE
5
268c
8
0-0
6
CONTINUOUS
62
  7
10
1248.486
20
1058.108
30
0.0
11
1248.486
21
1171.622
31
0.0
0
LINE
5
268d
8
0-0
6
CONTINUOUS
62
  7
10
1248.486
20
1171.622
30
0.0
11
1498.486
21
1171.622
31
0.0
0
LINE
5
268e
8
0-0
6
CONTINUOUS
62
  7
10
1498.486
20
1058.108
30
0.0
11
1498.486
21
1171.622
31
0.0
0
LINE
5
268f
8
0-0
6
CONTINUOUS
62
  7
10
915.513
20
587.838
30
0.0
11
975.513
21
587.838
31
0.0
0
LINE
5
2690
8
0-0
6
CONTINUOUS
62
  7
10
915.513
20
664.865
30
0.0
11
915.513
21
587.838
31
0.0
0
LINE
5
2691
8
0-0
6
CONTINUOUS
62
  7
10
975.513
20
664.865
30
0.0
11
975.513
21
587.838
31
0.0
0
LINE
5
2692
8
0-0
6
CONTINUOUS
62
  7
10
1198.486
20
587.838
30
0.0
11
1498.486
21
587.838
31
0.0
0
LINE
5
2693
8
0-0
6
CONTINUOUS
62
  7
10
1198.486
20
664.865
30
0.0
11
1198.486
21
587.838
31
0.0
0
LINE
5
2694
8
0-0
6
CONTINUOUS
62
  7
10
1498.486
20
664.865
30
0.0
11
1498.486
21
587.838
31
0.0
0
LINE
5
2695
8
0-0
6
CONTINUOUS
62
  7
10
1737.676
20
587.838
30
0.0
11
1827.676
21
587.838
31
0.0
0
LINE
5
2696
8
0-0
6
CONTINUOUS
62
  7
10
1737.676
20
664.865
30
0.0
11
1737.676
21
587.838
31
0.0
0
LINE
5
2697
8
0-0
6
CONTINUOUS
62
  7
10
1827.676
20
664.865
30
0.0
11
1827.676
21
587.838
31
0.0
0
LINE
5
2698
8
0-0
6
CONTINUOUS
62
  7
10
1498.486
20
502.703
30
0.0
11
1198.486
21
502.703
31
0.0
0
LINE
5
2699
8
0-0
6
CONTINUOUS
62
  7
10
1498.486
20
409.459
30
0.0
11
1498.486
21
502.703
31
0.0
0
LINE
5
269a
8
0-0
6
CONTINUOUS
62
  7
10
1198.486
20
409.459
30
0.0
11
1198.486
21
502.703
31
0.0
0
LINE
5
269b
8
0-0
6
CONTINUOUS
62
  7
10
801.189
20
502.703
30
0.0
11
501.189
21
502.703
31
0.0
0
LINE
5
269c
8
0-0
6
CONTINUOUS
62
  7
10
801.189
20
409.459
30
0.0
11
801.189
21
502.703
31
0.0
0
LINE
5
269d
8
0-0
6
CONTINUOUS
62
  7
10
501.189
20
409.459
30
0.0
11
501.189
21
502.703
31
0.0
0
LINE
5
269e
8
0-0
6
CONTINUOUS
62
  7
10
501.189
20
502.703
30
0.0
11
236.189
21
502.703
31
0.0
0
LINE
5
269f
8
0-0
6
CONTINUOUS
62
  7
10
236.189
20
409.459
30
0.0
11
236.189
21
502.703
31
0.0
0
LINE
5
26a0
8
0-0
6
CONTINUOUS
62
  7
10
1072.811
20
1017.568
30
0.0
11
1072.811
21
734.568
31
0.0
0
LINE
5
26a1
8
0-0
6
CONTINUOUS
62
  7
10
1162.000
20
1017.568
30
0.0
11
1072.811
21
1017.568
31
0.0
0
LINE
5
26a2
8
0-0
6
CONTINUOUS
62
  7
10
1162.000
20
734.568
30
0.0
11
1072.811
21
734.568
31
0.0
0
LINE
5
26a3
8
0-0
6
CONTINUOUS
62
  7
10
1072.811
20
361.730
30
0.0
11
1072.811
21
279.730
31
0.0
0
LINE
5
26a4
8
0-0
6
CONTINUOUS
62
  7
10
1162.000
20
361.730
30
0.0
11
1072.811
21
361.730
31
0.0
0
LINE
5
26a5
8
0-0
6
CONTINUOUS
62
  7
10
1162.000
20
279.730
30
0.0
11
1072.811
21
279.730
31
0.0
0
LINE
5
26a6
8
0-0
6
CONTINUOUS
62
  7
10
1121.459
20
1017.568
30
0.0
11
1121.459
21
977.568
31
0.0
0
LINE
5
26a7
8
0-0
6
CONTINUOUS
62
  7
10
1162.000
20
1017.568
30
0.0
11
1121.459
21
1017.568
31
0.0
0
LINE
5
26a8
8
0-0
6
CONTINUOUS
62
  7
10
1162.000
20
977.568
30
0.0
11
1121.459
21
977.568
31
0.0
0
LINE
5
26a9
8
0-0
6
CONTINUOUS
62
  7
10
1121.459
20
977.568
30
0.0
11
1121.459
21
734.568
31
0.0
0
LINE
5
26aa
8
0-0
6
CONTINUOUS
62
  7
10
1162.000
20
734.568
30
0.0
11
1121.459
21
734.568
31
0.0
0
LINE
5
26ab
8
0-0
6
CONTINUOUS
62
  7
10
1620.108
20
1017.568
30
0.0
11
1620.108
21
1012.568
31
0.0
0
LINE
5
26ac
8
0-0
6
CONTINUOUS
62
  7
10
1539.027
20
1017.568
30
0.0
11
1620.108
21
1017.568
31
0.0
0
LINE
5
26ad
8
0-0
6
CONTINUOUS
62
  7
10
1539.027
20
1012.568
30
0.0
11
1620.108
21
1012.568
31
0.0
0
LINE
5
26ae
8
0-0
6
CONTINUOUS
62
  7
10
1620.108
20
1012.568
30
0.0
11
1620.108
21
727.568
31
0.0
0
LINE
5
26af
8
0-0
6
CONTINUOUS
62
  7
10
1539.027
20
727.568
30
0.0
11
1620.108
21
727.568
31
0.0
0
LINE
5
26b0
8
0-0
6
CONTINUOUS
62
  7
10
1620.108
20
369.730
30
0.0
11
1620.108
21
279.730
31
0.0
0
LINE
5
26b1
8
0-0
6
CONTINUOUS
62
  7
10
1539.027
20
369.730
30
0.0
11
1620.108
21
369.730
31
0.0
0
LINE
5
26b2
8
0-0
6
CONTINUOUS
62
  7
10
1539.027
20
279.730
30
0.0
11
1620.108
21
279.730
31
0.0
0
LINE
5
26b3
8
0-0
6
CONTINUOUS
62
  7
10
975.513
20
1017.568
30
0.0
11
1005.693
21
1017.568
31
0.0
0
LINE
5
26b4
8
0-0
6
CONTINUOUS
62
  7
10
1005.693
20
1017.720
30
0.0
11
1005.693
21
1009.568
31
0.0
0
CIRCLE
5
26b5
8
0-0
6
CONTINUOUS
62
  7
10
1318.486
20
997.568
30
0.0
40
3.000
0
CIRCLE
5
26b6
8
0-0
6
CONTINUOUS
62
  7
10
1426.486
20
997.568
30
0.0
40
3.000
0
ARC
5
26b7
8
0-0
6
CONTINUOUS
62
  7
10
1254.783
20
259.940
30
0.0
40
116.321
50
99.050079
51
118.945694
0
ARC
5
26b8
8
0-0
6
CONTINUOUS
62
  7
10
1237.130
20
360.975
30
0.0
40
13.852
50
52.682190
51
92.663986
0
ARC
5
26b9
8
0-0
6
CONTINUOUS
62
  7
10
1374.065
20
600.998
30
0.0
40
262.613
50
240.695251
51
298.280090
0
ARC
5
26ba
8
0-0
6
CONTINUOUS
62
  7
10
557.486
20
259.940
30
0.0
40
116.321
50
99.050079
51
118.945694
0
ARC
5
26bb
8
0-0
6
CONTINUOUS
62
  7
10
539.833
20
360.975
30
0.0
40
13.852
50
52.682190
51
92.663986
0
ARC
5
26bc
8
0-0
6
CONTINUOUS
62
  7
10
676.768
20
600.998
30
0.0
40
262.613
50
240.695251
51
298.280090
0
ARC
5
26bd
8
0-0
6
CONTINUOUS
62
  7
10
422.744
20
552.455
30
0.0
40
228.526
50
242.130844
51
284.299927
0
ARC
5
26be
8
0-0
6
CONTINUOUS
62
  7
10
292.486
20
259.940
30
0.0
40
116.321
50
99.050079
51
118.945694
0
ARC
5
26bf
8
0-0
6
CONTINUOUS
62
  7
10
274.833
20
360.975
30
0.0
40
13.852
50
52.682190
51
92.663986
0
ARC
5
26c0
8
0-0
6
CONTINUOUS
62
  7
10
474.363
20
624.909
30
0.0
40
317.015
50
232.921234
51
239.651611
0
ARC
5
26c1
8
0-0
6
CONTINUOUS
62
  7
10
424.159
20
560.393
30
0.0
40
236.218
50
242.254501
51
242.727325
0
CIRCLE
5
26c2
8
ADD_LINE
6
HIDDEN
62
  3
10
1236.487
20
279.730
30
0.0
40
3.000
0
TEXT
5
26c3
100
AcDbEntity
8
0-0
62
7
100
AcDbText
10
959.263
20
1218.716
30
0.0
40
9.750
41
0.800
50
359.999
1
20
100
AcDbText
0
TEXT
5
26c4
100
AcDbEntity
8
0-0
62
7
100
AcDbText
10
1339.111
20
1218.716
30
0.0
40
9.750
41
0.800
50
0.000
1
300
100
AcDbText
0
TEXT
5
26c5
100
AcDbEntity
8
0-0
62
7
100
AcDbText
10
1763.926
20
1218.716
30
0.0
40
9.750
41
0.800
50
0.000
1
65
100
AcDbText
0
TEXT
5
26c6
100
AcDbEntity
8
0-0
62
7
100
AcDbText
10
1217.236
20
1174.122
30
0.0
40
9.750
41
0.800
50
0.000
1
50
100
AcDbText
0
TEXT
5
26c7
100
AcDbEntity
8
0-0
62
7
100
AcDbText
10
1364.111
20
1174.122
30
0.0
40
9.750
41
0.800
50
0.000
1
250
100
AcDbText
0
TEXT
5
26c8
100
AcDbEntity
8
0-0
62
7
100
AcDbText
10
939.263
20
590.338
30
0.0
40
9.750
41
0.800
50
0.000
1
60
100
AcDbText
0
TEXT
5
26c9
100
AcDbEntity
8
0-0
62
7
100
AcDbText
10
1339.111
20
590.338
30
0.0
40
9.750
41
0.800
50
0.000
1
300
100
AcDbText
0
TEXT
5
26ca
100
AcDbEntity
8
0-0
62
7
100
AcDbText
10
1776.426
20
590.338
30
0.0
40
9.750
41
0.800
50
0.000
1
90
100
AcDbText
0
TEXT
5
26cb
100
AcDbEntity
8
0-0
62
7
100
AcDbText
10
1339.111
20
505.203
30
0.0
40
9.750
41
0.800
50
0.000
1
300
100
AcDbText
0
TEXT
5
26cc
100
AcDbEntity
8
0-0
62
7
100
AcDbText
10
641.814
20
505.203
30
0.0
40
9.750
41
0.800
50
0.000
1
300
100
AcDbText
0
TEXT
5
26cd
100
AcDbEntity
8
0-0
62
7
100
AcDbText
10
359.314
20
505.203
30
0.0
40
9.750
41
0.800
50
0.000
1
265
100
AcDbText
0
TEXT
5
26ce
100
AcDbEntity
8
0-0
62
7
100
AcDbText
10
1070.311
20
866.693
30
0.0
40
9.750
41
0.800
50
90.000
1
283
100
AcDbText
0
TEXT
5
26cf
100
AcDbEntity
8
0-0
62
7
100
AcDbText
10
1070.311
20
314.480
30
0.0
40
9.750
41
0.800
50
90.000
1
82
100
AcDbText
0
TEXT
5
26d0
100
AcDbEntity
8
0-0
62
7
100
AcDbText
10
1118.959
20
991.318
30
0.0
40
9.750
41
0.800
50
90.000
1
40
100
AcDbText
0
TEXT
5
26d1
100
AcDbEntity
8
0-0
62
7
100
AcDbText
10
1118.959
20
846.693
30
0.0
40
9.750
41
0.800
50
90.000
1
243
100
AcDbText
0
TEXT
5
26d2
100
AcDbEntity
8
0-0
62
7
100
AcDbText
10
1617.608
20
1011.943
30
0.0
40
9.750
41
0.800
50
90.000
1
5
100
AcDbText
0
TEXT
5
26d3
100
AcDbEntity
8
0-0
62
7
100
AcDbText
10
1617.608
20
860.693
30
0.0
40
9.750
41
0.800
50
90.000
1
285
100
AcDbText
0
TEXT
5
26d4
100
AcDbEntity
8
0-0
62
7
100
AcDbText
10
1617.608
20
318.480
30
0.0
40
9.750
41
0.800
50
90.000
1
90
100
AcDbText
0
POINT
5
26d5
8
0-0
62
  7
10
955.513
20
1216.216
30
0.0
0
POINT
5
26d6
8
0-0
62
  7
10
975.513
20
1216.216
30
0.0
0
POINT
5
26d7
8
0-0
62
  7
10
1198.486
20
1216.216
30
0.0
0
POINT
5
26d8
8
0-0
62
  7
10
1498.486
20
1216.216
30
0.0
0
POINT
5
26d9
8
0-0
62
  7
10
1737.676
20
1216.216
30
0.0
0
POINT
5
26da
8
0-0
62
  7
10
1802.676
20
1216.216
30
0.0
0
POINT
5
26db
8
0-0
62
  7
10
1198.486
20
1171.622
30
0.0
0
POINT
5
26dc
8
0-0
62
  7
10
1248.486
20
1171.622
30
0.0
0
POINT
5
26dd
8
0-0
62
  7
10
1498.486
20
1171.622
30
0.0
0
POINT
5
26de
8
0-0
62
  7
10
915.513
20
587.838
30
0.0
0
POINT
5
26df
8
0-0
62
  7
10
975.513
20
587.838
30
0.0
0
POINT
5
26e0
8
0-0
62
  7
10
1198.486
20
587.838
30
0.0
0
POINT
5
26e1
8
0-0
62
  7
10
1498.486
20
587.838
30
0.0
0
POINT
5
26e2
8
0-0
62
  7
10
1737.676
20
587.838
30
0.0
0
POINT
5
26e3
8
0-0
62
  7
10
1827.676
20
587.838
30
0.0
0
POINT
5
26e4
8
0-0
62
  7
10
1498.486
20
502.703
30
0.0
0
POINT
5
26e5
8
0-0
62
  7
10
1198.486
20
502.703
30
0.0
0
POINT
5
26e6
8
0-0
62
  7
10
801.189
20
502.703
30
0.0
0
POINT
5
26e7
8
0-0
62
  7
10
501.189
20
502.703
30
0.0
0
POINT
5
26e8
8
0-0
62
  7
10
236.189
20
502.703
30
0.0
0
POINT
5
26e9
8
0-0
62
  7
10
1072.811
20
1017.568
30
0.0
0
POINT
5
26ea
8
0-0
62
  7
10
1072.811
20
734.568
30
0.0
0
POINT
5
26eb
8
0-0
62
  7
10
1072.811
20
361.730
30
0.0
0
POINT
5
26ec
8
0-0
62
  7
10
1072.811
20
279.730
30
0.0
0
POINT
5
26ed
8
0-0
62
  7
10
1121.459
20
1017.568
30
0.0
0
POINT
5
26ee
8
0-0
62
  7
10
1121.459
20
977.568
30
0.0
0
POINT
5
26ef
8
0-0
62
  7
10
1121.459
20
734.568
30
0.0
0
POINT
5
26f0
8
0-0
62
  7
10
1620.108
20
1017.568
30
0.0
0
POINT
5
26f1
8
0-0
62
  7
10
1620.108
20
1012.568
30
0.0
0
POINT
5
26f2
8
0-0
62
  7
10
1620.108
20
727.568
30
0.0
0
POINT
5
26f3
8
0-0
62
  7
10
1620.108
20
369.730
30
0.0
0
POINT
5
26f4
8
0-0
62
  7
10
1620.108
20
279.730
30
0.0
0
ENDSEC
0
EOF
