  0
SECTION
  2
HEADER
  9
$ACADVER
  1
AC1009
  9
$INSBASE
 10
0
 20
0
 30
0
  9
$EXTMIN
 10
0
 20
0
  9
$EXTMAX
 10
5940
 20
4200
  9
$LIMMIN
 10
0
 20
0
  9
$LIMMAX
 10
5940
 20
4200
  9
$LTSCALE
 40
20
  0
ENDSEC
  0
SECTION
  2
TABLES
  0
TABLE
  2
LTYPE
 70
     9
  0
LTYPE
  2
CONTINUOUS
 70
    64
  3
実線
 72
    65
 73
     0
 40
0.0
  0
LTYPE
  2
DASHED1
 70
    64
  3
--  --  --  --  --  --  --  --  
 72
    65
 73
     2
 40
2.5
 49
1.25
 49
-1.25
  0
LTYPE
  2
DASHED2
 70
    64
  3
----    ----    ----    ----    
 72
    65
 73
     2
 40
5.0
 49
2.5
 49
-2.5
  0
LTYPE
  2
DASHED3
 70
    64
  3
------  ------  ------  ------  
 72
    65
 73
     2
 40
5.0
 49
3.75
 49
-1.25
  0
LTYPE
  2
CENTER1
 70
    64
  3
----- - ----- - ----- - ----- - 
 72
    65
 73
     4
 40
10.0
 49
6.25
 49
-1.25
 49
1.25
 49
-1.25
  0
LTYPE
  2
CENTER2
 70
    64
  3
----------  --  ----------  --  
 72
    65
 73
     4
 40
20.0
 49
12.5
 49
-2.5
 49
2.5
 49
-2.5
  0
LTYPE
  2
PHANTOM1
 70
    64
  3
--- - - --- - - --- - - --- - - 
 72
    65
 73
     6
 40
10.0
 49
3.25
 49
-1.25
 49
1.25
 49
-1.25
 49
1.25
 49
-1.25
  0
LTYPE
  2
PHANTOM2
 70
    64
  3
--------  -  -  --------  -  -  
 72
    65
 73
     6
 40
20.0
 49
10.0
 49
-2.5
 49
1.25
 49
-2.5
 49
1.25
 49
-2.5
  0
LTYPE
  2
DOT
 70
    64
  3
-   -   -   -   -   -   -   -   
 72
    65
 73
     2
 40
2.5
 49
0.625
 49
-1.875
  0
LTYPE
  2
DUMMY
 70
    64
  3
ダミー
 72
    65
 73
     0
 40
0.0
  0
LTYPE
  2
RAND1
 70
    64
  3
ランダム線1
 72
    65
 73
     4
 40
10.0
 49
1.0
 49
-2.0
 49
3.0
 49
-4.0
  0
LTYPE
  2
RAND2
 70
    64
  3
ランダム線2
 72
    65
 73
     4
 40
14.0
 49
2.0
 49
-3.0
 49
4.0
 49
-5.0
  0
LTYPE
  2
RAND3
 70
    64
  3
ランダム線3
 72
    65
 73
     4
 40
18.0
 49
3.0
 49
-4.0
 49
5.0
 49
-6.0
  0
LTYPE
  2
RAND4
 70
    64
  3
ランダム線4
 72
    65
 73
     4
 40
22.0
 49
4.0
 49
-5.0
 49
6.0
 49
-7.0
  0
LTYPE
  2
RAND5
 70
    64
  3
ランダム線5
 72
    65
 73
     4
 40
26.0
 49
5.0
 49
-6.0
 49
7.0
 49
-8.0
  0
LTYPE
  2
LONG1
 70
    64
  3
----------  --  ----------  --  
 72
    65
 73
     4
 40
40.0
 49
32.5
 49
-2.5
 49
2.5
 49
-2.5
  0
LTYPE
  2
LONG2
 70
    64
  3
--------  -  -  --------  -  -  
 72
    65
 73
     6
 40
40.0
 49
30.0
 49
-2.5
 49
1.25
 49
-2.5
 49
1.25
 49
-2.5
  0
LTYPE
  2
LONG3
 70
    64
  3
+++++++++++++++..+++++++++++++++
 72
    65
 73
     2
 40
40.0
 49
37.5
 49
-2.5
  0
LTYPE
  2
LONG4
 70
    64
  3
+++++++++++++++..+++++++++++++++
 72
    65
 73
     2
 40
80.0
 49
75.0
 49
-5.0
  0
LTYPE
  2
LONG5
 70
    64
  3
----------  --  ----------  --  
 72
    65
 73
     4
 40
60.0
 49
37.5
 49
-7.5
 49
7.5
 49
-7.5
  0
LTYPE
  2
dashed
 70
   64
  3
-------   -------------   ------
 72
   65
 73
    2
 40
7.5
 49
6
 49
-1.5
  0
LTYPE
  2
dashed_spaced
 70
   64
  3
----        --------        ----
 72
   65
 73
    2
 40
12
 49
6
 49
-6
  0
LTYPE
  2
long_dashed_dotted
 70
   64
  3
------------- --- --------------
 72
   65
 73
    4
 40
15.25
 49
12
 49
-1.5
 49
0.25
 49
-1.5
  0
LTYPE
  2
long_dashed_double-dotted
 70
   64
  3
----------- --- --- ------------
 72
   65
 73
    6
 40
17
 49
12
 49
-1.5
 49
0.25
 49
-1.5
 49
0.25
 49
-1.5
  0
LTYPE
  2
long_dashed_triplicate-dotted
 70
   64
  3
--------- --- --- --- ----------
 72
   65
 73
    8
 40
18.75
 49
12
 49
-1.5
 49
0.25
 49
-1.5
 49
0.25
 49
-1.5
 49
0.25
 49
-1.5
  0
LTYPE
  2
dotted
 70
   64
  3
   -       -       -       -    
 72
   65
 73
    2
 40
1.75
 49
0.25
 49
-1.5
  0
LTYPE
  2
chain
 70
   64
  3
-------------- -- --------------
 72
   65
 73
    4
 40
18.5
 49
12
 49
-1.5
 49
3.5
 49
-1.5
  0
LTYPE
  2
chain_double_dash
 70
   64
  3
------------ -- -- -------------
 72
   65
 73
    6
 40
23.5
 49
12
 49
-1.5
 49
3.5
 49
-1.5
 49
3.5
 49
-1.5
  0
LTYPE
  2
dashed_dotted
 70
   64
  3
-----------     -     ----------
 72
   65
 73
    4
 40
9.25
 49
6
 49
-1.5
 49
0.25
 49
-1.5
  0
LTYPE
  2
double-dashed_dotted
 70
   64
  3
------   -----------   -   -----
 72
   65
 73
    6
 40
16.75
 49
6
 49
-1.5
 49
6
 49
-1.5
 49
0.25
 49
-1.5
  0
LTYPE
  2
dashed_double-dotted
 70
   64
  3
---------    -    -    ---------
 72
   65
 73
    6
 40
11
 49
6
 49
-1.5
 49
0.25
 49
-1.5
 49
0.25
 49
-1.5
  0
LTYPE
  2
double-dashed_double-dotted
 70
   64
  3
-----   ---------   -   -   ----
 72
   65
 73
    8
 40
18.5
 49
6
 49
-1.5
 49
6
 49
-1.5
 49
0.25
 49
-1.5
 49
0.25
 49
-1.5
  0
LTYPE
  2
dashed_triplicate-dotted
 70
   64
  3
-------    -    -    -    ------
 72
   65
 73
    8
 40
12.75
 49
6
 49
-1.5
 49
0.25
 49
-1.5
 49
0.25
 49
-1.5
 49
0.25
 49
-1.5
  0
LTYPE
  2
double-dashed_triplicate-dotted
 70
   64
  3
-----  ---------  -  -  -  -----
 72
   65
 73
   10
 40
20.25
 49
6
 49
-1.5
 49
6
 49
-1.5
 49
0.25
 49
-1.5
 49
0.25
 49
-1.5
 49
0.25
 49
-1.5
  0
LTYPE
  2
undefined
 70
   64
  3
--------------------------------
 72
   65
 73
    0
 40
0
  0
LTYPE
  2
DOT_17
 70
   64
  3
--             ---             -
 72
   65
 73
    2
 40
5
 49
1
 49
-4
  0
LTYPE
  2
DASHED
 70
   64
  3
---          ------          ---
 72
   65
 73
    2
 40
5
 49
2
 49
-3
  0
LTYPE
  2
DASHED2_19
 70
   64
  3
---          ------          ---
 72
   65
 73
    2
 40
10
 49
4
 49
-6
  0
LTYPE
  2
CENTER
 70
   64
  3
----------    ----    ----------
 72
   65
 73
    4
 40
9
 49
6
 49
-1
 49
1
 49
-1
  0
LTYPE
  2
CENTER2_21
 70
   64
  3
----------    ----    ----------
 72
   65
 73
    4
 40
18
 49
12
 49
-2
 49
2
 49
-2
  0
LTYPE
  2
PHANTOM
 70
   64
  3
---------   ---   ---   --------
 72
   65
 73
    6
 40
10
 49
5
 49
-1
 49
1
 49
-1
 49
1
 49
-1
  0
LTYPE
  2
PHANTOM2_23
 70
   64
  3
------    ----    ----    ------
 72
   65
 73
    6
 40
16
 49
6
 49
-2
 49
2
 49
-2
 49
2
 49
-2
  0
LTYPE
  2
HIDDEN
 70
   64
  3
--             ---             -
 72
   65
 73
    2
 40
2.5
 49
0.5
 49
-2
  0
ENDTAB
  0
TABLE
  2
STYLE
  5
3
100
AcDbSymbolTable
 70
     1
  0
STYLE
  5
10
100
AcDbSymbolTableRecord
100
AcDbTextStyleTableRecord
  2
STANDARD
 70
     0
 40
0.0
 41
1.0
 50
0.0
 71
     0
 42
0.2
  3
txt
  4
bigfont.shx
  0
STYLE
  5
26
100
AcDbSymbolTableRecord
100
AcDbTextStyleTableRecord
  2
TATEGAKI
 70
    68
 40
0.0
 41
1.0
 50
0.0
 71
     0
 42
1.0
  3
txt
  4
bigfont.shx
  0
ENDTAB
  0
TABLE
  2
LAYER
 70
    3
  0
LAYER
  2
_0-1_0-0
 70
   64
 62
    7
  6
CONTINUOUS
  0
LAYER
  2
_0-2_ADD_LINE
 70
   64
 62
    7
  6
CONTINUOUS
  0
LAYER
  2
ADD_LINE
 70
   64
 62
    7
  6
CONTINUOUS
  0
ENDTAB
  0
ENDSEC
  0
SECTION
  2
BLOCKS
  0
ENDSEC
  0
SECTION
  2
ENTITIES
  0
LINE
  8
_0-1_0-0
  6
CONTINUOUS
 62
    7
 10
1063.4770000000001
 20
1076.2260000000001
 11
1063.4770000000001
 21
1073.2260000000001
  0
LINE
  8
_0-1_0-0
  6
CONTINUOUS
 62
    7
 10
1063.4770000000001
 20
1073.2260000000001
 11
1101.4770000000001
 21
1083.106
  0
LINE
  8
_0-1_0-0
  6
CONTINUOUS
 62
    7
 10
1101.4770000000001
 20
1083.106
 11
1101.4770000000001
 21
1081.2260000000001
  0
LINE
  8
_0-1_0-0
  6
CONTINUOUS
 62
    7
 10
1063.4770000000001
 20
1073.2260000000001
 11
1101.4770000000001
 21
1083.106
  0
LINE
  8
_0-1_0-0
  6
CONTINUOUS
 62
    7
 10
1063.4770000000001
 20
1073.2260000000001
 11
1063.4770000000001
 21
1098.2260000000001
  0
LINE
  8
_0-1_0-0
  6
CONTINUOUS
 62
    7
 10
1101.4770000000001
 20
1016.2260000000001
 11
1101.4770000000001
 21
1081.2260000000001
  0
LINE
  8
_0-1_0-0
  6
CONTINUOUS
 62
    7
 10
1328.4770000000001
 20
1073.2260000000001
 11
1366.4770000000001
 21
1083.106
  0
LINE
  8
_0-1_0-0
  6
CONTINUOUS
 62
    7
 10
1328.4770000000001
 20
1073.2260000000001
 11
1366.4770000000001
 21
1083.106
  0
LINE
  8
_0-1_0-0
  6
CONTINUOUS
 62
    7
 10
1328.4770000000001
 20
1073.2260000000001
 11
1306.422
 21
1067.4920000000002
  0
LINE
  8
_0-1_0-0
  6
CONTINUOUS
 62
    7
 10
1328.4770000000001
 20
1073.2260000000001
 11
1376.4770000000001
 21
1085.7060000000001
  0
LINE
  8
_0-1_0-0
  6
CONTINUOUS
 62
    7
 10
1376.4770000000001
 20
1085.7060000000001
 11
1376.4770000000001
 21
1016.2260000000001
  0
LINE
  8
_0-1_0-0
  6
CONTINUOUS
 62
    7
 10
1101.4770000000001
 20
1016.2260000000001
 11
1376.4770000000001
 21
1016.2260000000001
  0
LINE
  8
_0-1_0-0
  6
CONTINUOUS
 62
    7
 10
1790.6660000000002
 20
1016.2260000000001
 11
2080.6660000000002
 21
1016.2260000000001
  0
LINE
  8
_0-1_0-0
  6
CONTINUOUS
 62
    7
 10
2080.6660000000002
 20
1085.7060000000001
 11
2080.6660000000002
 21
1016.2260000000001
  0
LINE
  8
_0-1_0-0
  6
CONTINUOUS
 62
    7
 10
1790.6660000000002
 20
1085.7060000000001
 11
1790.6660000000002
 21
1016.2260000000001
  0
LINE
  8
_0-1_0-0
  6
CONTINUOUS
 62
    7
 10
1063.4770000000001
 20
1411.3609999999999
 11
1103.4770000000001
 21
1401.3609999999999
  0
LINE
  8
_0-1_0-0
  6
CONTINUOUS
 62
    7
 10
1103.4770000000001
 20
1401.3609999999999
 11
1378.4770000000001
 21
1401.3609999999999
  0
LINE
  8
_0-1_0-0
  6
CONTINUOUS
 62
    7
 10
1378.4770000000001
 20
1401.3609999999999
 11
1378.4770000000001
 21
1406.3609999999999
  0
LINE
  8
_0-1_0-0
  6
CONTINUOUS
 62
    7
 10
1063.4770000000001
 20
1411.3609999999999
 11
1063.4770000000001
 21
1656.3609999999999
  0
LINE
  8
_0-1_0-0
  6
CONTINUOUS
 62
    7
 10
1063.4770000000001
 20
1656.3609999999999
 11
1103.4770000000001
 21
1656.3609999999999
  0
LINE
  8
_0-1_0-0
  6
CONTINUOUS
 62
    7
 10
1103.4770000000001
 20
1656.3609999999999
 11
1103.4770000000001
 21
1691.3609999999999
  0
LINE
  8
_0-1_0-0
  6
CONTINUOUS
 62
    7
 10
1103.4770000000001
 20
1691.3609999999999
 11
1123.4770000000001
 21
1691.3609999999999
  0
LINE
  8
_0-1_0-0
  6
CONTINUOUS
 62
    7
 10
1123.4770000000001
 20
1691.3609999999999
 11
1378.4770000000001
 21
1406.3609999999999
  0
LINE
  8
_0-1_0-0
  6
CONTINUOUS
 62
    7
 10
1111.4440000000002
 20
1656.191
 11
1116.645
 21
1654.5219999999999
  0
LINE
  8
_0-1_0-0
  6
CONTINUOUS
 62
    7
 10
1116.645
 20
1654.5219999999999
 11
1131.0740000000001
 21
1649.3040000000001
  0
LINE
  8
_0-1_0-0
  6
CONTINUOUS
 62
    7
 10
1131.0740000000001
 20
1649.3040000000001
 11
1143.7720000000002
 21
1643.0770000000002
  0
LINE
  8
_0-1_0-0
  6
CONTINUOUS
 62
    7
 10
1143.7720000000002
 20
1643.0770000000002
 11
1154.0630000000001
 21
1635.1600000000003
  0
LINE
  8
_0-1_0-0
  6
CONTINUOUS
 62
    7
 10
1154.0630000000001
 20
1635.1600000000003
 11
1158.4920000000002
 21
1629.7669999999998
  0
LINE
  8
_0-1_0-0
  6
CONTINUOUS
 62
    7
 10
1158.4920000000002
 20
1629.7669999999998
 11
1162.0330000000001
 21
1623.3199999999999
  0
LINE
  8
_0-1_0-0
  6
CONTINUOUS
 62
    7
 10
1162.0330000000001
 20
1623.3199999999999
 11
1166.873
 21
1609.7980000000002
  0
LINE
  8
_0-1_0-0
  6
CONTINUOUS
 62
    7
 10
1166.873
 20
1609.7980000000002
 11
1171.2640000000001
 21
1595.056
  0
LINE
  8
_0-1_0-0
  6
CONTINUOUS
 62
    7
 10
1171.2640000000001
 20
1595.056
 11
1177.1240000000003
 21
1580.7719999999999
  0
LINE
  8
_0-1_0-0
  6
CONTINUOUS
 62
    7
 10
1177.1240000000003
 20
1580.7719999999999
 11
1182.259
 21
1573.125
  0
LINE
  8
_0-1_0-0
  6
CONTINUOUS
 62
    7
 10
1182.259
 20
1573.125
 11
1190.2070000000001
 21
1565.739
  0
LINE
  8
_0-1_0-0
  6
CONTINUOUS
 62
    7
 10
1190.2070000000001
 20
1565.739
 11
1206.239
 21
1556.6329999999998
  0
LINE
  8
_0-1_0-0
  6
CONTINUOUS
 62
    7
 10
1206.239
 20
1556.6329999999998
 11
1222.96
 21
1549.0830000000001
  0
LINE
  8
_0-1_0-0
  6
CONTINUOUS
 62
    7
 10
1222.96
 20
1549.0830000000001
 11
1237.518
 21
1540.498
  0
LINE
  8
_0-1_0-0
  6
CONTINUOUS
 62
    7
 10
1237.518
 20
1540.498
 11
1243.7260000000001
 21
1534.4230000000002
  0
LINE
  8
_0-1_0-0
  6
CONTINUOUS
 62
    7
 10
1243.7260000000001
 20
1534.4230000000002
 11
1248.404
 21
1526.7760000000001
  0
LINE
  8
_0-1_0-0
  6
CONTINUOUS
 62
    7
 10
1248.404
 20
1526.7760000000001
 11
1254.4100000000001
 21
1509.9440000000002
  0
LINE
  8
_0-1_0-0
  6
CONTINUOUS
 62
    7
 10
1254.4100000000001
 20
1509.9440000000002
 11
1259.9180000000001
 21
1491.6900000000001
  0
LINE
  8
_0-1_0-0
  6
CONTINUOUS
 62
    7
 10
1259.9180000000001
 20
1491.6900000000001
 11
1268.4250000000002
 21
1475.2629999999999
  0
LINE
  8
_0-1_0-0
  6
CONTINUOUS
 62
    7
 10
1268.4250000000002
 20
1475.2629999999999
 11
1276.5950000000003
 21
1467.8900000000001
  0
LINE
  8
_0-1_0-0
  6
CONTINUOUS
 62
    7
 10
1276.5950000000003
 20
1467.8900000000001
 11
1282.7400000000002
 21
1464.8250000000003
  0
LINE
  8
_0-1_0-0
  6
CONTINUOUS
 62
    7
 10
1282.7400000000002
 20
1464.8250000000003
 11
1293.431
 21
1461.5530000000001
  0
LINE
  8
_0-1_0-0
  6
CONTINUOUS
 62
    7
 10
1293.431
 20
1461.5530000000001
 11
1303.8609999999999
 21
1458.99
  0
LINE
  8
_0-1_0-0
  6
CONTINUOUS
 62
    7
 10
1303.8609999999999
 20
1458.99
 11
1312.6100000000001
 21
1455.8430000000001
  0
LINE
  8
_0-1_0-0
  6
CONTINUOUS
 62
    7
 10
1312.6100000000001
 20
1455.8430000000001
 11
1316.0889999999999
 21
1453.6010000000001
  0
LINE
  8
_0-1_0-0
  6
CONTINUOUS
 62
    7
 10
1316.0889999999999
 20
1453.6010000000001
 11
1318.614
 21
1450.8240000000001
  0
LINE
  8
_0-1_0-0
  6
CONTINUOUS
 62
    7
 10
1318.614
 20
1450.8240000000001
 11
1321.9380000000001
 21
1443.537
  0
LINE
  8
_0-1_0-0
  6
CONTINUOUS
 62
    7
 10
1321.9380000000001
 20
1443.537
 11
1323.6710000000003
 21
1434.04
  0
LINE
  8
_0-1_0-0
  6
CONTINUOUS
 62
    7
 10
1323.6710000000003
 20
1434.04
 11
1324.3180000000002
 21
1422.902
  0
LINE
  8
_0-1_0-0
  6
CONTINUOUS
 62
    7
 10
1324.3180000000002
 20
1422.902
 11
1324.4490000000001
 21
1416.0709999999999
  0
LINE
  8
_0-1_0-0
  6
CONTINUOUS
 62
    7
 10
1112.8890000000001
 20
1660.9780000000001
 11
1118.2600000000002
 21
1659.2540000000004
  0
LINE
  8
_0-1_0-0
  6
CONTINUOUS
 62
    7
 10
1118.2600000000002
 20
1659.2540000000004
 11
1133.0310000000004
 21
1653.913
  0
LINE
  8
_0-1_0-0
  6
CONTINUOUS
 62
    7
 10
1133.0310000000004
 20
1653.913
 11
1146.4230000000002
 21
1647.3450000000003
  0
LINE
  8
_0-1_0-0
  6
CONTINUOUS
 62
    7
 10
1146.4230000000002
 20
1647.3450000000003
 11
1157.5640000000001
 21
1638.7750000000001
  0
LINE
  8
_0-1_0-0
  6
CONTINUOUS
 62
    7
 10
1157.5640000000001
 20
1638.7750000000001
 11
1162.6510000000003
 21
1632.5810000000001
  0
LINE
  8
_0-1_0-0
  6
CONTINUOUS
 62
    7
 10
1162.6510000000003
 20
1632.5810000000001
 11
1166.6060000000002
 21
1625.3790000000001
  0
LINE
  8
_0-1_0-0
  6
CONTINUOUS
 62
    7
 10
1166.6060000000002
 20
1625.3790000000001
 11
1171.6260000000002
 21
1611.355
  0
LINE
  8
_0-1_0-0
  6
CONTINUOUS
 62
    7
 10
1171.6260000000002
 20
1611.355
 11
1175.9840000000004
 21
1596.722
  0
LINE
  8
_0-1_0-0
  6
CONTINUOUS
 62
    7
 10
1175.9840000000004
 20
1596.722
 11
1181.558
 21
1583.1380000000001
  0
LINE
  8
_0-1_0-0
  6
CONTINUOUS
 62
    7
 10
1181.558
 20
1583.1380000000001
 11
1186.087
 21
1576.393
  0
LINE
  8
_0-1_0-0
  6
CONTINUOUS
 62
    7
 10
1186.087
 20
1576.393
 11
1193.1840000000002
 21
1569.7990000000002
  0
LINE
  8
_0-1_0-0
  6
CONTINUOUS
 62
    7
 10
1193.1840000000002
 20
1569.7990000000002
 11
1208.5080000000003
 21
1561.0950000000003
  0
LINE
  8
_0-1_0-0
  6
CONTINUOUS
 62
    7
 10
1208.5080000000003
 20
1561.0950000000003
 11
1225.2660000000001
 21
1553.527
  0
LINE
  8
_0-1_0-0
  6
CONTINUOUS
 62
    7
 10
1225.2660000000001
 20
1553.527
 11
1240.5800000000002
 21
1544.4960000000001
  0
LINE
  8
_0-1_0-0
  6
CONTINUOUS
 62
    7
 10
1240.5800000000002
 20
1544.4960000000001
 11
1247.6670000000001
 21
1537.5620000000001
  0
LINE
  8
_0-1_0-0
  6
CONTINUOUS
 62
    7
 10
1247.6670000000001
 20
1537.5620000000001
 11
1252.9390000000001
 21
1528.9430000000002
  0
LINE
  8
_0-1_0-0
  6
CONTINUOUS
 62
    7
 10
1252.9390000000001
 20
1528.9430000000002
 11
1259.1610000000001
 21
1511.5070000000001
  0
LINE
  8
_0-1_0-0
  6
CONTINUOUS
 62
    7
 10
1259.1610000000001
 20
1511.5070000000001
 11
1264.5710000000004
 21
1493.578
  0
LINE
  8
_0-1_0-0
  6
CONTINUOUS
 62
    7
 10
1264.5710000000004
 20
1493.578
 11
1272.4479999999999
 21
1478.3680000000002
  0
LINE
  8
_0-1_0-0
  6
CONTINUOUS
 62
    7
 10
1272.4479999999999
 20
1478.3680000000002
 11
1279.4380000000001
 21
1472.0600000000002
  0
LINE
  8
_0-1_0-0
  6
CONTINUOUS
 62
    7
 10
1279.4380000000001
 20
1472.0600000000002
 11
1284.6000000000001
 21
1469.4850000000001
  0
LINE
  8
_0-1_0-0
  6
CONTINUOUS
 62
    7
 10
1284.6000000000001
 20
1469.4850000000001
 11
1294.761
 21
1466.3750000000002
  0
LINE
  8
_0-1_0-0
  6
CONTINUOUS
 62
    7
 10
1294.761
 20
1466.3750000000002
 11
1305.308
 21
1463.7830000000004
  0
LINE
  8
_0-1_0-0
  6
CONTINUOUS
 62
    7
 10
1305.308
 20
1463.7830000000004
 11
1314.8389999999999
 21
1460.354
  0
LINE
  8
_0-1_0-0
  6
CONTINUOUS
 62
    7
 10
1314.8389999999999
 20
1460.354
 11
1319.348
 21
1457.4490000000001
  0
LINE
  8
_0-1_0-0
  6
CONTINUOUS
 62
    7
 10
1319.348
 20
1457.4490000000001
 11
1322.8390000000002
 21
1453.6100000000001
  0
LINE
  8
_0-1_0-0
  6
CONTINUOUS
 62
    7
 10
1322.8390000000002
 20
1453.6100000000001
 11
1326.7450000000003
 21
1445.046
  0
LINE
  8
_0-1_0-0
  6
CONTINUOUS
 62
    7
 10
1326.7450000000003
 20
1445.046
 11
1328.645
 21
1434.6360000000002
  0
LINE
  8
_0-1_0-0
  6
CONTINUOUS
 62
    7
 10
1328.645
 20
1434.6360000000002
 11
1329.3150000000001
 21
1423.0960000000002
  0
LINE
  8
_0-1_0-0
  6
CONTINUOUS
 62
    7
 10
1329.3150000000001
 20
1423.0960000000002
 11
1329.4480000000001
 21
1416.1670000000001
  0
LINE
  8
_0-1_0-0
  6
CONTINUOUS
 62
    7
 10
1790.6660000000002
 20
1401.3609999999999
 11
2080.6660000000002
 21
1401.3609999999999
  0
LINE
  8
_0-1_0-0
  6
CONTINUOUS
 62
    7
 10
1790.6660000000002
 20
1401.3609999999999
 11
1790.6660000000002
 21
1411.3609999999999
  0
LINE
  8
_0-1_0-0
  6
CONTINUOUS
 62
    7
 10
2075.6660000000002
 20
1696.3609999999999
 11
2075.6660000000002
 21
1431.3609999999999
  0
LINE
  8
_0-1_0-0
  6
CONTINUOUS
 62
    7
 10
1790.6660000000002
 20
1411.3609999999999
 11
2060.6660000000002
 21
1696.3609999999999
  0
LINE
  8
_0-1_0-0
  6
CONTINUOUS
 62
    7
 10
2060.6660000000002
 20
1696.3609999999999
 11
2075.6660000000002
 21
1696.3609999999999
  0
LINE
  8
_0-1_0-0
  6
CONTINUOUS
 62
    7
 10
2067.6660000000002
 20
1696.3609999999999
 11
2067.6660000000002
 21
1461.3609999999999
  0
LINE
  8
_0-1_0-0
  6
CONTINUOUS
 62
    7
 10
2067.6660000000002
 20
1461.3609999999999
 11
2075.6660000000002
 21
1461.3609999999999
  0
LINE
  8
_0-1_0-0
  6
CONTINUOUS
 62
    7
 10
2057.6990000000001
 20
1656.191
 11
2052.498
 21
1654.5219999999999
  0
LINE
  8
_0-1_0-0
  6
CONTINUOUS
 62
    7
 10
2052.498
 20
1654.5219999999999
 11
2038.0690000000002
 21
1649.3040000000001
  0
LINE
  8
_0-1_0-0
  6
CONTINUOUS
 62
    7
 10
2038.0690000000002
 20
1649.3040000000001
 11
2025.3710000000001
 21
1643.0770000000002
  0
LINE
  8
_0-1_0-0
  6
CONTINUOUS
 62
    7
 10
2025.3710000000001
 20
1643.0770000000002
 11
2015.0800000000002
 21
1635.1600000000003
  0
LINE
  8
_0-1_0-0
  6
CONTINUOUS
 62
    7
 10
2015.0800000000002
 20
1635.1600000000003
 11
2010.6510000000001
 21
1629.7669999999998
  0
LINE
  8
_0-1_0-0
  6
CONTINUOUS
 62
    7
 10
2010.6510000000001
 20
1629.7669999999998
 11
2007.1100000000001
 21
1623.3199999999999
  0
LINE
  8
_0-1_0-0
  6
CONTINUOUS
 62
    7
 10
2007.1100000000001
 20
1623.3199999999999
 11
2002.2700000000004
 21
1609.7980000000002
  0
LINE
  8
_0-1_0-0
  6
CONTINUOUS
 62
    7
 10
2002.2700000000004
 20
1609.7980000000002
 11
1997.8790000000001
 21
1595.056
  0
LINE
  8
_0-1_0-0
  6
CONTINUOUS
 62
    7
 10
1997.8790000000001
 20
1595.056
 11
1992.0190000000002
 21
1580.7719999999999
  0
LINE
  8
_0-1_0-0
  6
CONTINUOUS
 62
    7
 10
1992.0190000000002
 20
1580.7719999999999
 11
1986.884
 21
1573.125
  0
LINE
  8
_0-1_0-0
  6
CONTINUOUS
 62
    7
 10
1986.884
 20
1573.125
 11
1978.9360000000001
 21
1565.739
  0
LINE
  8
_0-1_0-0
  6
CONTINUOUS
 62
    7
 10
1978.9360000000001
 20
1565.739
 11
1962.9040000000005
 21
1556.6329999999998
  0
LINE
  8
_0-1_0-0
  6
CONTINUOUS
 62
    7
 10
1962.9040000000005
 20
1556.6329999999998
 11
1946.1830000000004
 21
1549.0830000000001
  0
LINE
  8
_0-1_0-0
  6
CONTINUOUS
 62
    7
 10
1946.1830000000004
 20
1549.0830000000001
 11
1931.6250000000002
 21
1540.498
  0
LINE
  8
_0-1_0-0
  6
CONTINUOUS
 62
    7
 10
1931.6250000000002
 20
1540.498
 11
1925.4170000000001
 21
1534.4230000000002
  0
LINE
  8
_0-1_0-0
  6
CONTINUOUS
 62
    7
 10
1925.4170000000001
 20
1534.4230000000002
 11
1920.739
 21
1526.7760000000001
  0
LINE
  8
_0-1_0-0
  6
CONTINUOUS
 62
    7
 10
1920.739
 20
1526.7760000000001
 11
1914.7330000000002
 21
1509.9440000000002
  0
LINE
  8
_0-1_0-0
  6
CONTINUOUS
 62
    7
 10
1914.7330000000002
 20
1509.9440000000002
 11
1909.2250000000001
 21
1491.6900000000001
  0
LINE
  8
_0-1_0-0
  6
CONTINUOUS
 62
    7
 10
1909.2250000000001
 20
1491.6900000000001
 11
1900.7179999999998
 21
1475.2629999999999
  0
LINE
  8
_0-1_0-0
  6
CONTINUOUS
 62
    7
 10
1900.7179999999998
 20
1475.2629999999999
 11
1892.5480000000002
 21
1467.8900000000001
  0
LINE
  8
_0-1_0-0
  6
CONTINUOUS
 62
    7
 10
1892.5480000000002
 20
1467.8900000000001
 11
1886.403
 21
1464.8250000000003
  0
LINE
  8
_0-1_0-0
  6
CONTINUOUS
 62
    7
 10
1886.403
 20
1464.8250000000003
 11
1875.7120000000004
 21
1461.5530000000001
  0
LINE
  8
_0-1_0-0
  6
CONTINUOUS
 62
    7
 10
1875.7120000000004
 20
1461.5530000000001
 11
1865.2820000000002
 21
1458.99
  0
LINE
  8
_0-1_0-0
  6
CONTINUOUS
 62
    7
 10
1865.2820000000002
 20
1458.99
 11
1856.5329999999999
 21
1455.8430000000001
  0
LINE
  8
_0-1_0-0
  6
CONTINUOUS
 62
    7
 10
1856.5329999999999
 20
1455.8430000000001
 11
1853.0540000000001
 21
1453.6010000000001
  0
LINE
  8
_0-1_0-0
  6
CONTINUOUS
 62
    7
 10
1853.0540000000001
 20
1453.6010000000001
 11
1850.5290000000002
 21
1450.8240000000001
  0
LINE
  8
_0-1_0-0
  6
CONTINUOUS
 62
    7
 10
1850.5290000000002
 20
1450.8240000000001
 11
1847.2050000000002
 21
1443.537
  0
LINE
  8
_0-1_0-0
  6
CONTINUOUS
 62
    7
 10
1847.2050000000002
 20
1443.537
 11
1845.4720000000002
 21
1434.04
  0
LINE
  8
_0-1_0-0
  6
CONTINUOUS
 62
    7
 10
1845.4720000000002
 20
1434.04
 11
1844.8250000000003
 21
1422.902
  0
LINE
  8
_0-1_0-0
  6
CONTINUOUS
 62
    7
 10
1844.8250000000003
 20
1422.902
 11
1844.694
 21
1416.0709999999999
  0
LINE
  8
_0-1_0-0
  6
CONTINUOUS
 62
    7
 10
2056.2539999999999
 20
1660.9780000000001
 11
2050.8829999999998
 21
1659.2540000000004
  0
LINE
  8
_0-1_0-0
  6
CONTINUOUS
 62
    7
 10
2050.8829999999998
 20
1659.2540000000004
 11
2036.1120000000001
 21
1653.913
  0
LINE
  8
_0-1_0-0
  6
CONTINUOUS
 62
    7
 10
2036.1120000000001
 20
1653.913
 11
2022.7199999999998
 21
1647.3450000000003
  0
LINE
  8
_0-1_0-0
  6
CONTINUOUS
 62
    7
 10
2022.7199999999998
 20
1647.3450000000003
 11
2011.5790000000002
 21
1638.7750000000001
  0
LINE
  8
_0-1_0-0
  6
CONTINUOUS
 62
    7
 10
2011.5790000000002
 20
1638.7750000000001
 11
2006.4920000000002
 21
1632.5810000000001
  0
LINE
  8
_0-1_0-0
  6
CONTINUOUS
 62
    7
 10
2006.4920000000002
 20
1632.5810000000001
 11
2002.537
 21
1625.3790000000001
  0
LINE
  8
_0-1_0-0
  6
CONTINUOUS
 62
    7
 10
2002.537
 20
1625.3790000000001
 11
1997.5160000000001
 21
1611.355
  0
LINE
  8
_0-1_0-0
  6
CONTINUOUS
 62
    7
 10
1997.5160000000001
 20
1611.355
 11
1993.1590000000001
 21
1596.722
  0
LINE
  8
_0-1_0-0
  6
CONTINUOUS
 62
    7
 10
1993.1590000000001
 20
1596.722
 11
1987.585
 21
1583.1380000000001
  0
LINE
  8
_0-1_0-0
  6
CONTINUOUS
 62
    7
 10
1987.585
 20
1583.1380000000001
 11
1983.056
 21
1576.393
  0
LINE
  8
_0-1_0-0
  6
CONTINUOUS
 62
    7
 10
1983.056
 20
1576.393
 11
1975.9590000000001
 21
1569.7990000000002
  0
LINE
  8
_0-1_0-0
  6
CONTINUOUS
 62
    7
 10
1975.9590000000001
 20
1569.7990000000002
 11
1960.6350000000002
 21
1561.0950000000003
  0
LINE
  8
_0-1_0-0
  6
CONTINUOUS
 62
    7
 10
1960.6350000000002
 20
1561.0950000000003
 11
1943.8770000000002
 21
1553.527
  0
LINE
  8
_0-1_0-0
  6
CONTINUOUS
 62
    7
 10
1943.8770000000002
 20
1553.527
 11
1928.5619999999999
 21
1544.4960000000001
  0
LINE
  8
_0-1_0-0
  6
CONTINUOUS
 62
    7
 10
1928.5619999999999
 20
1544.4960000000001
 11
1921.4760000000001
 21
1537.5620000000001
  0
LINE
  8
_0-1_0-0
  6
CONTINUOUS
 62
    7
 10
1921.4760000000001
 20
1537.5620000000001
 11
1916.2040000000002
 21
1528.9430000000002
  0
LINE
  8
_0-1_0-0
  6
CONTINUOUS
 62
    7
 10
1916.2040000000002
 20
1528.9430000000002
 11
1909.9820000000002
 21
1511.5070000000001
  0
LINE
  8
_0-1_0-0
  6
CONTINUOUS
 62
    7
 10
1909.9820000000002
 20
1511.5070000000001
 11
1904.5720000000001
 21
1493.578
  0
LINE
  8
_0-1_0-0
  6
CONTINUOUS
 62
    7
 10
1904.5720000000001
 20
1493.578
 11
1896.6950000000002
 21
1478.3680000000002
  0
LINE
  8
_0-1_0-0
  6
CONTINUOUS
 62
    7
 10
1896.6950000000002
 20
1478.3680000000002
 11
1889.7050000000002
 21
1472.0600000000002
  0
LINE
  8
_0-1_0-0
  6
CONTINUOUS
 62
    7
 10
1889.7050000000002
 20
1472.0600000000002
 11
1884.5430000000001
 21
1469.4850000000001
  0
LINE
  8
_0-1_0-0
  6
CONTINUOUS
 62
    7
 10
1884.5430000000001
 20
1469.4850000000001
 11
1874.3820000000001
 21
1466.3750000000002
  0
LINE
  8
_0-1_0-0
  6
CONTINUOUS
 62
    7
 10
1874.3820000000001
 20
1466.3750000000002
 11
1863.835
 21
1463.7830000000004
  0
LINE
  8
_0-1_0-0
  6
CONTINUOUS
 62
    7
 10
1863.835
 20
1463.7830000000004
 11
1854.3040000000001
 21
1460.354
  0
LINE
  8
_0-1_0-0
  6
CONTINUOUS
 62
    7
 10
1854.3040000000001
 20
1460.354
 11
1849.7950000000001
 21
1457.4490000000001
  0
LINE
  8
_0-1_0-0
  6
CONTINUOUS
 62
    7
 10
1849.7950000000001
 20
1457.4490000000001
 11
1846.3040000000001
 21
1453.6100000000001
  0
LINE
  8
_0-1_0-0
  6
CONTINUOUS
 62
    7
 10
1846.3040000000001
 20
1453.6100000000001
 11
1842.3980000000001
 21
1445.046
  0
LINE
  8
_0-1_0-0
  6
CONTINUOUS
 62
    7
 10
1842.3980000000001
 20
1445.046
 11
1840.498
 21
1434.6360000000002
  0
LINE
  8
_0-1_0-0
  6
CONTINUOUS
 62
    7
 10
1840.498
 20
1434.6360000000002
 11
1839.8280000000002
 21
1423.0960000000002
  0
LINE
  8
_0-1_0-0
  6
CONTINUOUS
 62
    7
 10
1839.8280000000002
 20
1423.0960000000002
 11
1839.6950000000002
 21
1416.1670000000001
  0
LINE
  8
_0-1_0-0
  6
CONTINUOUS
 62
    7
 10
1553.5709999999999
 20
1726.3609999999999
 11
1613.5709999999999
 21
1726.3609999999999
  0
LINE
  8
_0-2_ADD_LINE
  6
HIDDEN
 62
    3
 10
1583.5709999999999
 20
772.98200000000008
 11
1583.5709999999999
 21
1985.145
  0
LINE
  8
_0-1_0-0
  6
CONTINUOUS
 62
    7
 10
1528.5709999999999
 20
1386.3609999999999
 11
1583.5709999999999
 21
1321.3609999999999
  0
LINE
  8
_0-1_0-0
  6
CONTINUOUS
 62
    7
 10
1583.5709999999999
 20
1321.3609999999999
 11
1638.5709999999999
 21
1386.3609999999999
  0
LINE
  8
_0-1_0-0
  6
CONTINUOUS
 62
    7
 10
1571.0709999999999
 20
1726.3609999999999
 11
1583.5709999999999
 21
1686.3609999999999
  0
LINE
  8
_0-1_0-0
  6
CONTINUOUS
 62
    7
 10
1596.0709999999999
 20
1726.3609999999999
 11
1583.5709999999999
 21
1686.3609999999999
  0
LINE
  8
_0-1_0-0
  6
CONTINUOUS
 62
    7
 10
1583.5709999999999
 20
1321.3609999999999
 11
1583.5709999999999
 21
1686.3609999999999
  0
LINE
  8
_0-1_0-0
  6
CONTINUOUS
 62
    7
 10
1528.5709999999999
 20
1109.2260000000001
 11
1517.5710000000001
 21
1016.2260000000001
  0
LINE
  8
_0-1_0-0
  6
CONTINUOUS
 62
    7
 10
1638.5709999999999
 20
1109.2260000000001
 11
1649.5710000000004
 21
1016.2260000000001
  0
LINE
  8
_0-1_0-0
  6
CONTINUOUS
 62
    7
 10
1528.5709999999999
 20
1109.2260000000001
 11
1583.5709999999999
 21
1146.2260000000001
  0
LINE
  8
_0-1_0-0
  6
CONTINUOUS
 62
    7
 10
1583.5709999999999
 20
1146.2260000000001
 11
1638.5709999999999
 21
1109.2260000000001
  0
LINE
  8
_0-1_0-0
  6
CONTINUOUS
 62
    7
 10
1517.5710000000001
 20
1016.2260000000001
 11
1649.5710000000004
 21
1016.2260000000001
  0
LINE
  8
_0-1_0-0
  6
CONTINUOUS
 62
    7
 10
2432.6930000000002
 20
1321.3609999999999
 11
2462.6930000000002
 21
1381.3609999999999
  0
LINE
  8
_0-1_0-0
  6
CONTINUOUS
 62
    7
 10
2452.6930000000002
 20
1726.3609999999999
 11
2467.6930000000002
 21
1726.3609999999999
  0
LINE
  8
_0-1_0-0
  6
CONTINUOUS
 62
    7
 10
2442.6930000000002
 20
1726.3609999999999
 11
2452.6930000000002
 21
1726.3609999999999
  0
LINE
  8
_0-1_0-0
  6
CONTINUOUS
 62
    7
 10
2462.6930000000002
 20
1381.3609999999999
 11
2467.1920000000005
 21
1400.848
  0
LINE
  8
_0-1_0-0
  6
CONTINUOUS
 62
    7
 10
2467.1920000000005
 20
1400.848
 11
2397.6930000000002
 21
1416.893
  0
LINE
  8
_0-1_0-0
  6
CONTINUOUS
 62
    7
 10
2462.6930000000002
 20
1381.3609999999999
 11
2351.8300000000004
 21
1406.9560000000001
  0
LINE
  8
_0-1_0-0
  6
CONTINUOUS
 62
    7
 10
2312.6930000000002
 20
1361.3609999999999
 11
2432.6930000000002
 21
1321.3609999999999
  0
LINE
  8
_0-1_0-0
  6
CONTINUOUS
 62
    7
 10
1553.5709999999999
 20
1847.3070000000002
 11
1613.5709999999999
 21
1847.3070000000002
  0
LINE
  8
_0-1_0-0
  6
CONTINUOUS
 62
    7
 10
1553.5709999999999
 20
1766.2260000000001
 11
1553.5709999999999
 21
1847.3070000000002
  0
LINE
  8
_0-1_0-0
  6
CONTINUOUS
 62
    7
 10
1613.5709999999999
 20
1766.2260000000001
 11
1613.5709999999999
 21
1847.3070000000002
  0
LINE
  8
_0-1_0-0
  6
CONTINUOUS
 62
    7
 10
2452.6930000000002
 20
1847.3070000000002
 11
2467.6930000000002
 21
1847.3070000000002
  0
LINE
  8
_0-1_0-0
  6
CONTINUOUS
 62
    7
 10
2452.6930000000002
 20
1766.2260000000001
 11
2452.6930000000002
 21
1847.3070000000002
  0
LINE
  8
_0-1_0-0
  6
CONTINUOUS
 62
    7
 10
2467.6930000000002
 20
1766.2260000000001
 11
2467.6930000000002
 21
1847.3070000000002
  0
LINE
  8
_0-1_0-0
  6
CONTINUOUS
 62
    7
 10
1063.4770000000001
 20
1231.0900000000001
 11
1378.4770000000001
 21
1231.0900000000001
  0
LINE
  8
_0-1_0-0
  6
CONTINUOUS
 62
    7
 10
1063.4770000000001
 20
1283.7930000000001
 11
1063.4770000000001
 21
1231.0900000000001
  0
LINE
  8
_0-1_0-0
  6
CONTINUOUS
 62
    7
 10
1378.4770000000001
 20
1283.7930000000001
 11
1378.4770000000001
 21
1231.0900000000001
  0
LINE
  8
_0-1_0-0
  6
CONTINUOUS
 62
    7
 10
1528.5709999999999
 20
1231.0900000000001
 11
1638.5709999999999
 21
1231.0900000000001
  0
LINE
  8
_0-1_0-0
  6
CONTINUOUS
 62
    7
 10
1528.5709999999999
 20
1283.7930000000001
 11
1528.5709999999999
 21
1231.0900000000001
  0
LINE
  8
_0-1_0-0
  6
CONTINUOUS
 62
    7
 10
1638.5709999999999
 20
1283.7930000000001
 11
1638.5709999999999
 21
1231.0900000000001
  0
LINE
  8
_0-1_0-0
  6
CONTINUOUS
 62
    7
 10
1790.6660000000002
 20
1231.0900000000001
 11
2080.6660000000002
 21
1231.0900000000001
  0
LINE
  8
_0-1_0-0
  6
CONTINUOUS
 62
    7
 10
1790.6660000000002
 20
1283.7930000000001
 11
1790.6660000000002
 21
1231.0900000000001
  0
LINE
  8
_0-1_0-0
  6
CONTINUOUS
 62
    7
 10
2080.6660000000002
 20
1283.7930000000001
 11
2080.6660000000002
 21
1231.0900000000001
  0
LINE
  8
_0-1_0-0
  6
CONTINUOUS
 62
    7
 10
2312.6930000000002
 20
1231.0900000000001
 11
2462.6930000000002
 21
1231.0900000000001
  0
LINE
  8
_0-1_0-0
  6
CONTINUOUS
 62
    7
 10
2312.6930000000002
 20
1283.7930000000001
 11
2312.6930000000002
 21
1231.0900000000001
  0
LINE
  8
_0-1_0-0
  6
CONTINUOUS
 62
    7
 10
2462.6930000000002
 20
1283.7930000000001
 11
2462.6930000000002
 21
1231.0900000000001
  0
LINE
  8
_0-1_0-0
  6
CONTINUOUS
 62
    7
 10
2192.018
 20
1401.3609999999999
 11
2192.018
 21
1696.3609999999999
  0
LINE
  8
_0-1_0-0
  6
CONTINUOUS
 62
    7
 10
2106.8820000000001
 20
1401.3609999999999
 11
2192.018
 21
1401.3609999999999
  0
LINE
  8
_0-1_0-0
  6
CONTINUOUS
 62
    7
 10
2106.8820000000001
 20
1696.3609999999999
 11
2192.018
 21
1696.3609999999999
  0
LINE
  8
_0-1_0-0
  6
CONTINUOUS
 62
    7
 10
1725.8010000000002
 20
1016.2260000000001
 11
1725.8010000000002
 21
1146.2260000000001
  0
LINE
  8
_0-1_0-0
  6
CONTINUOUS
 62
    7
 10
1677.1530000000002
 20
1016.2260000000001
 11
1725.8010000000002
 21
1016.2260000000001
  0
LINE
  8
_0-1_0-0
  6
CONTINUOUS
 62
    7
 10
1677.1530000000002
 20
1146.2260000000001
 11
1725.8010000000002
 21
1146.2260000000001
  0
ARC
  8
_0-1_0-0
  6
CONTINUOUS
 62
    7
 10
1250.0310000000002
 20
1288.951
 40
228.52600000000001
 50
242.13084399999997
 51
284.29992700000003
  0
ARC
  8
_0-1_0-0
  6
CONTINUOUS
 62
    7
 10
1119.7740000000001
 20
996.43600000000015
 40
116.321
 50
99.050078999999997
 51
118.945694
  0
ARC
  8
_0-1_0-0
  6
CONTINUOUS
 62
    7
 10
1102.1210000000001
 20
1097.471
 40
13.852
 50
52.682189999999999
 51
92.663985999999994
  0
ARC
  8
_0-1_0-0
  6
CONTINUOUS
 62
    7
 10
1301.6509999999998
 20
1361.405
 40
317.01499999999999
 50
232.92123400000006
 51
239.65161100000006
  0
ARC
  8
_0-1_0-0
  6
CONTINUOUS
 62
    7
 10
1251.4470000000001
 20
1296.8890000000001
 40
236.21800000000002
 50
242.254501
 51
242.72732500000001
  0
ARC
  8
_0-1_0-0
  6
CONTINUOUS
 62
    7
 10
1935.6660000000002
 20
1502.8990000000001
 40
441.673
 50
250.834564
 51
289.165436
  0
CIRCLE
  8
_0-1_0-0
  6
CONTINUOUS
 62
    7
 10
1116.8580000000002
 20
1668.7640000000001
 40
3
  0
CIRCLE
  8
_0-1_0-0
  6
CONTINUOUS
 62
    7
 10
1193.5390000000002
 20
1583.0610000000001
 40
3
  0
CIRCLE
  8
_0-1_0-0
  6
CONTINUOUS
 62
    7
 10
1286.8910000000001
 20
1478.7280000000001
 40
3
  0
ARC
  8
_0-1_0-0
  6
CONTINUOUS
 62
    7
 10
1112.0780000000002
 20
1658.6110000000003
 40
2.5019999999999998
 50
71.088866999999993
 51
255.31440699999999
  0
ARC
  8
_0-1_0-0
  6
CONTINUOUS
 62
    7
 10
1326.9370000000001
 20
1416.7110000000002
 40
2.569
 50
194.42604100000003
 51
347.764771
  0
ARC
  8
_0-1_0-0
  6
CONTINUOUS
 62
    7
 10
2205.7600000000002
 20
1437.6260000000002
 40
130.245
 50
182.75741600000001
 51
196.16729700000005
  0
CIRCLE
  8
_0-1_0-0
  6
CONTINUOUS
 62
    7
 10
2052.2849999999999
 20
1668.7640000000001
 40
3
  0
CIRCLE
  8
_0-1_0-0
  6
CONTINUOUS
 62
    7
 10
1975.6040000000003
 20
1583.0610000000001
 40
3
  0
CIRCLE
  8
_0-1_0-0
  6
CONTINUOUS
 62
    7
 10
1882.2520000000004
 20
1478.7280000000001
 40
3
  0
ARC
  8
_0-1_0-0
  6
CONTINUOUS
 62
    7
 10
2057.0650000000001
 20
1658.6110000000003
 40
2.5019999999999998
 50
284.68560800000006
 51
108.91113300000005
  0
ARC
  8
_0-1_0-0
  6
CONTINUOUS
 62
    7
 10
1842.2060000000001
 20
1416.7110000000002
 40
2.569
 50
192.235229
 51
345.57397500000002
  0
ARC
  8
_0-1_0-0
  6
CONTINUOUS
 62
    7
 10
-283.89800000000037
 20
1690.5500000000002
 40
1837.819
 50
350.47277800000001
 51
1.1165160000000107
  0
ARC
  8
_0-1_0-0
  6
CONTINUOUS
 62
    7
 10
3451.0419999999999
 20
1690.5500000000002
 40
1837.819
 50
178.88348400000001
 51
189.52723700000001
  0
CIRCLE
  8
_0-1_0-0
  6
CONTINUOUS
 62
    7
 10
1583.5709999999999
 20
1478.3610000000001
 40
3
  0
CIRCLE
  8
_0-1_0-0
  6
CONTINUOUS
 62
    7
 10
1583.5709999999999
 20
1493.3610000000001
 40
3
  0
CIRCLE
  8
_0-1_0-0
  6
CONTINUOUS
 62
    7
 10
1583.5709999999999
 20
1706.3609999999999
 40
3
  0
ARC
  8
_0-1_0-0
  6
CONTINUOUS
 62
    7
 10
1955.162
 20
1707.845
 40
497.875
 50
315.89892600000002
 51
2.1312869999999946
  0
ARC
  8
_0-1_0-0
  6
CONTINUOUS
 62
    7
 10
1709.6870000000001
 20
1735.1670000000001
 40
758.05700000000002
 50
335.17456100000004
 51
359.33435100000003
  0
ARC
  8
_0-1_0-0
  6
CONTINUOUS
 62
    7
 10
1800.9140000000002
 20
1749.289
 40
642.18899999999985
 50
322.83789100000001
 51
357.95391799999999
  0
ARC
  8
_0-1_0-0
  6
CONTINUOUS
 62
    7
 10
2341.598
 20
1731.529
 40
108.28400000000001
 50
335.34686299999998
 51
357.44064300000002
  0
CIRCLE
  8
_0-2_ADD_LINE
  6
HIDDEN
 62
    3
 10
1583.5709999999999
 20
1016.2260000000001
 40
3
  0
TEXT
  8
_0-1_0-0
 62
    7
 10
1577.3209999999999
 20
1849.8070000000002
 40
9.75
 41
0.8
 50
0
  1
60
  0
TEXT
  8
_0-1_0-0
 62
    7
 10
2453.9430000000002
 20
1849.8070000000002
 40
9.75
 41
0.8
 50
0
  1
15
  0
TEXT
  8
_0-1_0-0
 62
    7
 10
1211.6020000000001
 20
1233.5900000000001
 40
9.75
 41
0.8
 50
0
  1
315
  0
TEXT
  8
_0-1_0-0
 62
    7
 10
1574.1959999999999
 20
1233.5900000000001
 40
9.75
 41
0.8
 50
0
  1
110
  0
TEXT
  8
_0-1_0-0
 62
    7
 10
1926.2910000000002
 20
1233.5900000000001
 40
9.75
 41
0.8
 50
0
  1
290
  0
TEXT
  8
_0-1_0-0
 62
    7
 10
2378.3180000000002
 20
1233.5900000000001
 40
9.75
 41
0.8
 50
0
  1
150
  0
TEXT
  8
_0-1_0-0
 62
    7
 10
2189.518
 20
1539.4859999999999
 40
9.75
 41
0.8
 50
90
  1
295
  0
TEXT
  8
_0-1_0-0
 62
    7
 10
1723.3010000000002
 20
1071.8510000000001
 40
9.75
 41
0.8
 50
90
  1
130
  0
POINT
  8
_0-1_0-0
 62
    7
 10
1553.5709999999999
 20
1847.3070000000002
  0
POINT
  8
_0-1_0-0
 62
    7
 10
1613.5709999999999
 20
1847.3070000000002
  0
POINT
  8
_0-1_0-0
 62
    7
 10
2452.6930000000002
 20
1847.3070000000002
  0
POINT
  8
_0-1_0-0
 62
    7
 10
2467.6930000000002
 20
1847.3070000000002
  0
POINT
  8
_0-1_0-0
 62
    7
 10
1063.4770000000001
 20
1231.0900000000001
  0
POINT
  8
_0-1_0-0
 62
    7
 10
1378.4770000000001
 20
1231.0900000000001
  0
POINT
  8
_0-1_0-0
 62
    7
 10
1528.5709999999999
 20
1231.0900000000001
  0
POINT
  8
_0-1_0-0
 62
    7
 10
1638.5709999999999
 20
1231.0900000000001
  0
POINT
  8
_0-1_0-0
 62
    7
 10
1790.6660000000002
 20
1231.0900000000001
  0
POINT
  8
_0-1_0-0
 62
    7
 10
2080.6660000000002
 20
1231.0900000000001
  0
POINT
  8
_0-1_0-0
 62
    7
 10
2312.6930000000002
 20
1231.0900000000001
  0
POINT
  8
_0-1_0-0
 62
    7
 10
2462.6930000000002
 20
1231.0900000000001
  0
POINT
  8
_0-1_0-0
 62
    7
 10
2192.018
 20
1401.3609999999999
  0
POINT
  8
_0-1_0-0
 62
    7
 10
2192.018
 20
1696.3609999999999
  0
POINT
  8
_0-1_0-0
 62
    7
 10
1725.8010000000002
 20
1016.2260000000001
  0
POINT
  8
_0-1_0-0
 62
    7
 10
1725.8010000000002
 20
1146.2260000000001
  0
ENDSEC
  0
EOF
