0
SECTION
2
HEADER
  9
$EXTMIN
10
0
20
0
30
0
  9
$EXTMAX
10
1497.989
20
1222.033
30
0
  9
$LTSCALE
40
5.000
  9
$DIMSCALE
40
5.000
  9
$PDMODE
70
0
  9
$PDSIZE
40
40
0
ENDSEC
0
SECTION
2
TABLES
0
TABLE
2
LTYPE
70
9
0
LTYPE
5
1f4
2
CONTINUOUS
70
0
3
実線
72
65
73
0
40
0.0
0
LTYPE
5
1f5
2
DOT
70
0
3
--  --  --  --  --  --  --  --     
72
65
73
2
40
5.000
49
1.000
49
-4.000
0
LTYPE
5
1f6
2
DASHED
70
0
3
----    ----    ----    ----    
72
65
73
2
40
5.000
49
2.000
49
-3.000
0
LTYPE
5
1f7
2
DASHED2
70
0
3
------  ------  ------  ------ 
72
65
73
2
40
10.000
49
4.000
49
-6.000
0
LTYPE
5
1f8
2
CENTER
70
0
3
----- - ----- - ----- - ----- - 
72
65
73
4
40
9.000
49
6.000
49
-1.000
49
1.000
49
-1.000
0
LTYPE
5
1f9
2
CENTER2
70
0
3
----------  --  ----------  -- 
72
65
73
4
40
18.000
49
12.000
49
-2.000
49
2.000
49
-2.000
0
LTYPE
5
1fa
2
PHANTOM
70
0
3
--- - - --- - - --- - - --- - -
72
65
73
6
40
10.000
49
5.000
49
-1.000
49
1.000
49
-1.000
49
1.000
49
-1.000
0
LTYPE
5
1fb
2
PHANTOM2
70
0
3
--------  -  -  --------  -  -
72
65
73
6
40
16.000
49
6.000
49
-2.000
49
2.000
49
-2.000
49
2.000
49
-2.000
0
LTYPE
5
1fc
2
HIDDEN
70
0
3
-   -   -   -   -   -   -   -   
72
65
73
2
40
2.500
49
0.500
49
-2.000
0
ENDTAB
0
TABLE
2
STYLE
70
1
0
STYLE
5
1fd
100
AcDbSymbolTableRecord
100
AcDbTextStyleTableRecord
2
STANDARD
70
0
40
0.0
41
1.0
50
0.0
71
0
42
0.0
3
txt.shx
4
extfont.shx
0
STYLE
5
1fe
100
AcDbSymbolTableRecord
100
AcDbTextStyleTableRecord
2
TATEGAKI
70
4
40
0.0
41
1.0
50
0.0
71
0
42
0.0
3
txt.shx
4
extfont.shx
0
STYLE
5
1ff
100
AcDbSymbolTableRecord
100
AcDbTextStyleTableRecord
2
MT
70
0
40
0.0
41
1.0
50
0.0
71
0
42
0.0
3
MS Mincho
4

0
STYLE
5
200
100
AcDbSymbolTableRecord
100
AcDbTextStyleTableRecord
2
TMT
70
4
40
0.0
41
1.0
50
0.0
71
0
42
0.0
3
@MS Mincho
4

0
ENDTAB
0
TABLE
2
LAYER
5
2c40
100
AcDbSymbolTable
70
10
0
LAYER
5
2c41
100
AcDbSymbolTableRecord
100
AcDbLayerTableRecord
2
0
70
64
62
  7
  6
CONTINUOUS
0
LAYER
5
2c42
100
AcDbSymbolTableRecord
100
AcDbLayerTableRecord
2
0-0
70
64
62
  7
  6
CONTINUOUS
0
LAYER
5
2c43
100
AcDbSymbolTableRecord
100
AcDbLayerTableRecord
2
ADD_LINE
70
64
62
  -7
  6
CONTINUOUS
0
ENDTAB
0
ENDSEC
0
SECTION
2
ENTITIES
0
LINE
5
2c44
8
0-0
6
CONTINUOUS
62
  7
10
940.575
20
1004.668
30
0.0
11
1183.575
21
1004.668
31
0.0
0
LINE
5
2c45
8
0-0
6
CONTINUOUS
62
  7
10
940.575
20
1004.668
30
0.0
11
963.391
21
1004.668
31
0.0
0
LINE
5
2c46
8
0-0
6
CONTINUOUS
62
  7
10
970.575
20
996.668
30
0.0
11
1175.575
21
996.668
31
0.0
0
LINE
5
2c47
8
0-0
6
CONTINUOUS
62
  7
10
970.575
20
1004.668
30
0.0
11
970.575
21
996.668
31
0.0
0
LINE
5
2c48
8
0-0
6
CONTINUOUS
62
  7
10
915.575
20
331.839
30
0.0
11
913.575
21
288.839
31
0.0
0
LINE
5
2c49
8
0-0
6
CONTINUOUS
62
  7
10
917.315
20
347.247
30
0.0
11
917.315
21
346.372
31
0.0
0
LINE
5
2c4a
8
0-0
6
CONTINUOUS
62
  7
10
932.488
20
330.119
30
0.0
11
932.556
21
330.794
31
0.0
0
LINE
5
2c4b
8
0-0
6
CONTINUOUS
62
  7
10
932.556
20
330.794
30
0.0
11
932.682
21
332.031
31
0.0
0
LINE
5
2c4c
8
0-0
6
CONTINUOUS
62
  7
10
932.682
20
332.031
30
0.0
11
932.806
21
333.267
31
0.0
0
LINE
5
2c4d
8
0-0
6
CONTINUOUS
62
  7
10
932.806
20
333.267
30
0.0
11
932.925
21
334.470
31
0.0
0
LINE
5
2c4e
8
0-0
6
CONTINUOUS
62
  7
10
932.925
20
334.470
30
0.0
11
932.999
21
335.233
31
0.0
0
LINE
5
2c4f
8
0-0
6
CONTINUOUS
62
  7
10
932.999
20
335.233
30
0.0
11
933.060
21
335.863
31
0.0
0
LINE
5
2c50
8
0-0
6
CONTINUOUS
62
  7
10
933.060
20
335.863
30
0.0
11
933.177
21
337.091
31
0.0
0
LINE
5
2c51
8
0-0
6
CONTINUOUS
62
  7
10
933.177
20
337.091
30
0.0
11
933.290
21
338.240
31
0.0
0
LINE
5
2c52
8
0-0
6
CONTINUOUS
62
  7
10
933.290
20
338.240
30
0.0
11
933.404
21
339.349
31
0.0
0
LINE
5
2c53
8
0-0
6
CONTINUOUS
62
  7
10
933.404
20
339.349
30
0.0
11
933.469
21
339.946
31
0.0
0
LINE
5
2c54
8
0-0
6
CONTINUOUS
62
  7
10
933.469
20
339.946
30
0.0
11
933.534
21
340.505
31
0.0
0
LINE
5
2c55
8
0-0
6
CONTINUOUS
62
  7
10
933.534
20
340.505
30
0.0
11
933.655
21
341.469
31
0.0
0
LINE
5
2c56
8
0-0
6
CONTINUOUS
62
  7
10
933.655
20
341.469
30
0.0
11
933.778
21
342.322
31
0.0
0
LINE
5
2c57
8
0-0
6
CONTINUOUS
62
  7
10
913.575
20
288.839
30
0.0
11
930.593
21
288.839
31
0.0
0
LINE
5
2c58
8
0-0
6
CONTINUOUS
62
  7
10
932.557
20
331.049
30
0.0
11
930.593
21
288.839
31
0.0
0
LINE
5
2c59
8
0-0
6
CONTINUOUS
62
  7
10
1421.466
20
996.668
30
0.0
11
1421.466
21
722.668
31
0.0
0
LINE
5
2c5a
8
0-0
6
CONTINUOUS
62
  7
10
1418.798
20
1004.668
30
0.0
11
1418.798
21
996.668
31
0.0
0
LINE
5
2c5b
8
0-0
6
CONTINUOUS
62
  7
10
1396.466
20
1004.668
30
0.0
11
1437.466
21
1004.668
31
0.0
0
LINE
5
2c5c
8
ADD_LINE
6
HIDDEN
62
  3
10
1037.053
20
328.378
30
0.0
11
1043.867
21
328.378
31
0.0
0
LINE
5
2c5d
8
ADD_LINE
6
HIDDEN
62
  3
10
1050.558
20
328.378
30
0.0
11
1050.558
21
338.785
31
0.0
0
LINE
5
2c5e
8
ADD_LINE
6
HIDDEN
62
  3
10
1050.555
20
328.378
30
0.0
11
1050.555
21
316.762
31
0.0
0
LINE
5
2c5f
8
0-0
6
CONTINUOUS
62
  7
10
613.710
20
1219.533
30
0.0
11
668.710
21
1219.533
31
0.0
0
LINE
5
2c60
8
0-0
6
CONTINUOUS
62
  7
10
613.710
20
1049.262
30
0.0
11
613.710
21
1219.533
31
0.0
0
LINE
5
2c61
8
0-0
6
CONTINUOUS
62
  7
10
668.710
20
1049.262
30
0.0
11
668.710
21
1219.533
31
0.0
0
LINE
5
2c62
8
0-0
6
CONTINUOUS
62
  7
10
940.575
20
1219.533
30
0.0
11
1183.575
21
1219.533
31
0.0
0
LINE
5
2c63
8
0-0
6
CONTINUOUS
62
  7
10
940.575
20
1049.262
30
0.0
11
940.575
21
1219.533
31
0.0
0
LINE
5
2c64
8
0-0
6
CONTINUOUS
62
  7
10
1183.575
20
1049.262
30
0.0
11
1183.575
21
1219.533
31
0.0
0
LINE
5
2c65
8
0-0
6
CONTINUOUS
62
  7
10
940.575
20
1154.668
30
0.0
11
970.575
21
1154.668
31
0.0
0
LINE
5
2c66
8
0-0
6
CONTINUOUS
62
  7
10
940.575
20
1049.262
30
0.0
11
940.575
21
1154.668
31
0.0
0
LINE
5
2c67
8
0-0
6
CONTINUOUS
62
  7
10
970.575
20
1049.262
30
0.0
11
970.575
21
1154.668
31
0.0
0
LINE
5
2c68
8
0-0
6
CONTINUOUS
62
  7
10
970.575
20
1154.668
30
0.0
11
1183.575
21
1154.668
31
0.0
0
LINE
5
2c69
8
0-0
6
CONTINUOUS
62
  7
10
1183.575
20
1049.262
30
0.0
11
1183.575
21
1154.668
31
0.0
0
LINE
5
2c6a
8
0-0
6
CONTINUOUS
62
  7
10
1421.466
20
1154.668
30
0.0
11
1437.466
21
1154.668
31
0.0
0
LINE
5
2c6b
8
0-0
6
CONTINUOUS
62
  7
10
1421.466
20
1049.262
30
0.0
11
1421.466
21
1154.668
31
0.0
0
LINE
5
2c6c
8
0-0
6
CONTINUOUS
62
  7
10
1437.466
20
1049.262
30
0.0
11
1437.466
21
1154.668
31
0.0
0
LINE
5
2c6d
8
0-0
6
CONTINUOUS
62
  7
10
668.710
20
1004.668
30
0.0
11
613.710
21
1004.668
31
0.0
0
LINE
5
2c6e
8
0-0
6
CONTINUOUS
62
  7
10
824.439
20
288.839
30
0.0
11
824.439
21
368.891
31
0.0
0
LINE
5
2c6f
8
0-0
6
CONTINUOUS
62
  7
10
882.761
20
288.839
30
0.0
11
824.439
21
288.839
31
0.0
0
LINE
5
2c70
8
0-0
6
CONTINUOUS
62
  7
10
882.761
20
368.891
30
0.0
11
824.439
21
368.891
31
0.0
0
LINE
5
2c71
8
0-0
6
CONTINUOUS
62
  7
10
913.575
20
474.324
30
0.0
11
1138.575
21
474.324
31
0.0
0
LINE
5
2c72
8
0-0
6
CONTINUOUS
62
  7
10
913.575
20
405.405
30
0.0
11
913.575
21
474.324
31
0.0
0
LINE
5
2c73
8
0-0
6
CONTINUOUS
62
  7
10
913.575
20
566.830
30
0.0
11
1183.575
21
566.830
31
0.0
0
LINE
5
2c74
8
0-0
6
CONTINUOUS
62
  7
10
913.575
20
651.965
30
0.0
11
913.575
21
566.830
31
0.0
0
LINE
5
2c75
8
0-0
6
CONTINUOUS
62
  7
10
1183.575
20
651.965
30
0.0
11
1183.575
21
566.830
31
0.0
0
LINE
5
2c76
8
0-0
6
CONTINUOUS
62
  7
10
613.710
20
1004.668
30
0.0
11
578.710
21
691.668
31
0.0
0
LINE
5
2c77
8
0-0
6
CONTINUOUS
62
  7
10
578.710
20
691.668
30
0.0
11
668.710
21
704.668
31
0.0
0
LINE
5
2c78
8
0-0
6
CONTINUOUS
62
  7
10
668.710
20
1004.668
30
0.0
11
668.710
21
704.668
31
0.0
0
LINE
5
2c79
8
0-0
6
CONTINUOUS
62
  7
10
914.433
20
709.365
30
0.0
11
914.018
21
704.668
31
0.0
0
LINE
5
2c7a
8
0-0
6
CONTINUOUS
62
  7
10
1175.575
20
996.668
30
0.0
11
1175.575
21
704.668
31
0.0
0
LINE
5
2c7b
8
0-0
6
CONTINUOUS
62
  7
10
1183.575
20
1004.668
30
0.0
11
1183.575
21
704.668
31
0.0
0
LINE
5
2c7c
8
0-0
6
CONTINUOUS
62
  7
10
940.575
20
1004.668
30
0.0
11
914.018
21
704.668
31
0.0
0
LINE
5
2c7d
8
0-0
6
CONTINUOUS
62
  7
10
1421.466
20
731.376
30
0.0
11
1421.466
21
704.668
31
0.0
0
LINE
5
2c7e
8
0-0
6
CONTINUOUS
62
  7
10
1437.466
20
1004.668
30
0.0
11
1437.466
21
721.085
31
0.0
0
LINE
5
2c7f
8
0-0
6
CONTINUOUS
62
  7
10
1437.466
20
721.085
30
0.0
11
1445.466
21
715.217
31
0.0
0
LINE
5
2c80
8
0-0
6
CONTINUOUS
62
  7
10
1445.466
20
715.217
30
0.0
11
1445.466
21
702.145
31
0.0
0
LINE
5
2c81
8
0-0
6
CONTINUOUS
62
  7
10
1421.466
20
704.668
30
0.0
11
1445.466
21
702.145
31
0.0
0
LINE
5
2c82
8
0-0
6
CONTINUOUS
62
  7
10
914.018
20
704.668
30
0.0
11
1183.575
21
704.668
31
0.0
0
LINE
5
2c83
8
0-0
6
CONTINUOUS
62
  7
10
1396.466
20
1004.668
30
0.0
11
1396.466
21
707.295
31
0.0
0
LINE
5
2c84
8
0-0
6
CONTINUOUS
62
  7
10
1421.466
20
704.668
30
0.0
11
1396.466
21
707.295
31
0.0
0
LINE
5
2c85
8
0-0
6
CONTINUOUS
62
  7
10
578.710
20
566.830
30
0.0
11
668.710
21
566.830
31
0.0
0
LINE
5
2c86
8
0-0
6
CONTINUOUS
62
  7
10
578.710
20
651.965
30
0.0
11
578.710
21
566.830
31
0.0
0
LINE
5
2c87
8
0-0
6
CONTINUOUS
62
  7
10
668.710
20
651.965
30
0.0
11
668.710
21
566.830
31
0.0
0
LINE
5
2c88
8
0-0
6
CONTINUOUS
62
  7
10
1421.466
20
566.830
30
0.0
11
1445.466
21
566.830
31
0.0
0
LINE
5
2c89
8
0-0
6
CONTINUOUS
62
  7
10
1421.466
20
651.965
30
0.0
11
1421.466
21
566.830
31
0.0
0
LINE
5
2c8a
8
0-0
6
CONTINUOUS
62
  7
10
1445.466
20
651.965
30
0.0
11
1445.466
21
566.830
31
0.0
0
LINE
5
2c8b
8
0-0
6
CONTINUOUS
62
  7
10
399.243
20
1004.668
30
0.0
11
399.243
21
691.668
31
0.0
0
LINE
5
2c8c
8
0-0
6
CONTINUOUS
62
  7
10
512.757
20
1004.668
30
0.0
11
399.243
21
1004.668
31
0.0
0
LINE
5
2c8d
8
0-0
6
CONTINUOUS
62
  7
10
512.757
20
691.668
30
0.0
11
399.243
21
691.668
31
0.0
0
LINE
5
2c8e
8
0-0
6
CONTINUOUS
62
  7
10
1291.135
20
1004.668
30
0.0
11
1291.135
21
704.668
31
0.0
0
LINE
5
2c8f
8
0-0
6
CONTINUOUS
62
  7
10
1222.216
20
1004.668
30
0.0
11
1291.135
21
1004.668
31
0.0
0
LINE
5
2c90
8
0-0
6
CONTINUOUS
62
  7
10
1222.216
20
704.668
30
0.0
11
1291.135
21
704.668
31
0.0
0
LINE
5
2c91
8
ADD_LINE
6
HIDDEN
62
  3
10
1050.558
20
338.785
30
0.0
11
1050.558
21
352.421
31
0.0
0
LINE
5
2c92
8
0-0
6
CONTINUOUS
62
  7
10
1183.575
20
368.839
30
0.0
11
1183.575
21
372.451
31
0.0
0
LINE
5
2c93
8
0-0
6
CONTINUOUS
62
  7
10
1175.575
20
370.035
30
0.0
11
1175.575
21
372.451
31
0.0
0
LINE
5
2c94
8
0-0
6
CONTINUOUS
62
  7
10
1183.575
20
372.451
30
0.0
11
1175.575
21
372.451
31
0.0
0
LINE
5
2c95
8
0-0
6
CONTINUOUS
62
  7
10
915.575
20
331.839
30
0.0
11
915.646
21
332.536
31
0.0
0
LINE
5
2c96
8
0-0
6
CONTINUOUS
62
  7
10
915.646
20
332.536
30
0.0
11
915.768
21
333.738
31
0.0
0
LINE
5
2c97
8
0-0
6
CONTINUOUS
62
  7
10
915.768
20
333.738
30
0.0
11
915.888
21
334.939
31
0.0
0
LINE
5
2c98
8
0-0
6
CONTINUOUS
62
  7
10
915.888
20
334.939
30
0.0
11
916.007
21
336.141
31
0.0
0
LINE
5
2c99
8
0-0
6
CONTINUOUS
62
  7
10
916.007
20
336.141
30
0.0
11
916.075
21
336.839
31
0.0
0
LINE
5
2c9a
8
0-0
6
CONTINUOUS
62
  7
10
916.075
20
336.839
30
0.0
11
916.142
21
337.536
31
0.0
0
LINE
5
2c9b
8
0-0
6
CONTINUOUS
62
  7
10
916.142
20
337.536
30
0.0
11
916.257
21
338.738
31
0.0
0
LINE
5
2c9c
8
0-0
6
CONTINUOUS
62
  7
10
916.257
20
338.738
30
0.0
11
916.375
21
339.940
31
0.0
0
LINE
5
2c9d
8
0-0
6
CONTINUOUS
62
  7
10
916.375
20
339.940
30
0.0
11
916.499
21
341.142
31
0.0
0
LINE
5
2c9e
8
0-0
6
CONTINUOUS
62
  7
10
916.499
20
341.142
30
0.0
11
916.575
21
341.839
31
0.0
0
LINE
5
2c9f
8
0-0
6
CONTINUOUS
62
  7
10
916.575
20
341.839
30
0.0
11
916.656
21
342.539
31
0.0
0
LINE
5
2ca0
8
0-0
6
CONTINUOUS
62
  7
10
916.656
20
342.539
30
0.0
11
916.808
21
343.745
31
0.0
0
LINE
5
2ca1
8
0-0
6
CONTINUOUS
62
  7
10
916.808
20
343.745
30
0.0
11
916.981
21
344.948
31
0.0
0
LINE
5
2ca2
8
0-0
6
CONTINUOUS
62
  7
10
916.981
20
344.948
30
0.0
11
917.183
21
346.147
31
0.0
0
LINE
5
2ca3
8
0-0
6
CONTINUOUS
62
  7
10
917.183
20
346.147
30
0.0
11
917.315
21
346.839
31
0.0
0
LINE
5
2ca4
8
0-0
6
CONTINUOUS
62
  7
10
917.315
20
346.839
30
0.0
11
917.463
21
347.542
31
0.0
0
LINE
5
2ca5
8
0-0
6
CONTINUOUS
62
  7
10
917.463
20
347.542
30
0.0
11
917.744
21
348.750
31
0.0
0
LINE
5
2ca6
8
0-0
6
CONTINUOUS
62
  7
10
917.744
20
348.750
30
0.0
11
918.053
21
349.952
31
0.0
0
LINE
5
2ca7
8
0-0
6
CONTINUOUS
62
  7
10
918.053
20
349.952
30
0.0
11
918.380
21
351.147
31
0.0
0
LINE
5
2ca8
8
0-0
6
CONTINUOUS
62
  7
10
918.380
20
351.147
30
0.0
11
918.575
21
351.839
31
0.0
0
LINE
5
2ca9
8
0-0
6
CONTINUOUS
62
  7
10
918.575
20
351.839
30
0.0
11
918.777
21
352.542
31
0.0
0
LINE
5
2caa
8
0-0
6
CONTINUOUS
62
  7
10
918.777
20
352.542
30
0.0
11
919.135
21
353.749
31
0.0
0
LINE
5
2cab
8
0-0
6
CONTINUOUS
62
  7
10
919.135
20
353.749
30
0.0
11
919.516
21
354.952
31
0.0
0
LINE
5
2cac
8
0-0
6
CONTINUOUS
62
  7
10
919.516
20
354.952
30
0.0
11
919.928
21
356.148
31
0.0
0
LINE
5
2cad
8
0-0
6
CONTINUOUS
62
  7
10
919.928
20
356.148
30
0.0
11
920.186
21
356.839
31
0.0
0
LINE
5
2cae
8
0-0
6
CONTINUOUS
62
  7
10
920.186
20
356.839
30
0.0
11
920.392
21
357.360
31
0.0
0
LINE
5
2caf
8
0-0
6
CONTINUOUS
62
  7
10
920.392
20
357.360
30
0.0
11
920.778
21
358.247
31
0.0
0
LINE
5
2cb0
8
0-0
6
CONTINUOUS
62
  7
10
920.778
20
358.247
30
0.0
11
921.217
21
359.104
31
0.0
0
LINE
5
2cb1
8
0-0
6
CONTINUOUS
62
  7
10
921.217
20
359.104
30
0.0
11
921.727
21
359.913
31
0.0
0
LINE
5
2cb2
8
0-0
6
CONTINUOUS
62
  7
10
921.727
20
359.913
30
0.0
11
922.060
21
360.353
31
0.0
0
LINE
5
2cb3
8
0-0
6
CONTINUOUS
62
  7
10
922.060
20
360.353
30
0.0
11
922.251
21
360.578
31
0.0
0
LINE
5
2cb4
8
0-0
6
CONTINUOUS
62
  7
10
922.251
20
360.578
30
0.0
11
922.598
21
360.951
31
0.0
0
LINE
5
2cb5
8
0-0
6
CONTINUOUS
62
  7
10
922.598
20
360.951
30
0.0
11
922.965
21
361.307
31
0.0
0
LINE
5
2cb6
8
0-0
6
CONTINUOUS
62
  7
10
922.965
20
361.307
30
0.0
11
923.348
21
361.647
31
0.0
0
LINE
5
2cb7
8
0-0
6
CONTINUOUS
62
  7
10
923.348
20
361.647
30
0.0
11
923.575
21
361.839
31
0.0
0
LINE
5
2cb8
8
0-0
6
CONTINUOUS
62
  7
10
923.575
20
361.839
30
0.0
11
924.815
21
362.786
31
0.0
0
LINE
5
2cb9
8
0-0
6
CONTINUOUS
62
  7
10
924.815
20
362.786
30
0.0
11
927.103
21
364.196
31
0.0
0
LINE
5
2cba
8
0-0
6
CONTINUOUS
62
  7
10
927.103
20
364.196
30
0.0
11
929.539
21
365.365
31
0.0
0
LINE
5
2cbb
8
0-0
6
CONTINUOUS
62
  7
10
929.539
20
365.365
30
0.0
11
932.076
21
366.342
31
0.0
0
LINE
5
2cbc
8
0-0
6
CONTINUOUS
62
  7
10
932.076
20
366.342
30
0.0
11
933.575
21
366.839
31
0.0
0
LINE
5
2cbd
8
0-0
6
CONTINUOUS
62
  7
10
933.575
20
366.839
30
0.0
11
934.952
21
367.256
31
0.0
0
LINE
5
2cbe
8
0-0
6
CONTINUOUS
62
  7
10
934.952
20
367.256
30
0.0
11
937.341
21
367.885
31
0.0
0
LINE
5
2cbf
8
0-0
6
CONTINUOUS
62
  7
10
937.341
20
367.885
30
0.0
11
939.747
21
368.381
31
0.0
0
LINE
5
2cc0
8
0-0
6
CONTINUOUS
62
  7
10
939.747
20
368.381
30
0.0
11
942.167
21
368.721
31
0.0
0
LINE
5
2cc1
8
0-0
6
CONTINUOUS
62
  7
10
942.167
20
368.721
30
0.0
11
943.575
21
368.839
31
0.0
0
LINE
5
2cc2
8
0-0
6
CONTINUOUS
62
  7
10
943.575
20
368.839
30
0.0
11
946.238
21
368.891
31
0.0
0
LINE
5
2cc3
8
0-0
6
CONTINUOUS
62
  7
10
946.238
20
368.891
30
0.0
11
950.836
21
368.525
31
0.0
0
LINE
5
2cc4
8
0-0
6
CONTINUOUS
62
  7
10
950.836
20
368.525
30
0.0
11
955.421
21
367.705
31
0.0
0
LINE
5
2cc5
8
0-0
6
CONTINUOUS
62
  7
10
955.421
20
367.705
30
0.0
11
959.967
21
366.578
31
0.0
0
LINE
5
2cc6
8
0-0
6
CONTINUOUS
62
  7
10
959.967
20
366.578
30
0.0
11
962.575
21
365.839
31
0.0
0
LINE
5
2cc7
8
0-0
6
CONTINUOUS
62
  7
10
962.575
20
365.839
30
0.0
11
963.852
21
365.462
31
0.0
0
LINE
5
2cc8
8
0-0
6
CONTINUOUS
62
  7
10
963.852
20
365.462
30
0.0
11
966.037
21
364.789
31
0.0
0
LINE
5
2cc9
8
0-0
6
CONTINUOUS
62
  7
10
966.037
20
364.789
30
0.0
11
968.202
21
364.076
31
0.0
0
LINE
5
2cca
8
0-0
6
CONTINUOUS
62
  7
10
968.202
20
364.076
30
0.0
11
970.343
21
363.311
31
0.0
0
LINE
5
2ccb
8
0-0
6
CONTINUOUS
62
  7
10
970.343
20
363.311
30
0.0
11
970.327
21
363.318
31
0.0
0
LINE
5
2ccc
8
0-0
6
CONTINUOUS
62
  7
10
1183.575
20
368.839
30
0.0
11
1183.575
21
355.451
31
0.0
0
LINE
5
2ccd
8
0-0
6
CONTINUOUS
62
  7
10
1138.575
20
405.405
30
0.0
11
1138.575
21
474.324
31
0.0
0
LINE
5
2cce
8
ADD_LINE
6
HIDDEN
62
  3
10
1138.575
20
379.837
30
0.0
11
1138.575
21
345.689
31
0.0
0
LINE
5
2ccf
8
ADD_LINE
6
HIDDEN
62
  3
10
1043.867
20
328.378
30
0.0
11
1122.496
21
328.378
31
0.0
0
LINE
5
2cd0
8
ADD_LINE
6
HIDDEN
62
  3
10
1037.053
20
328.378
30
0.0
11
1006.352
21
328.378
31
0.0
0
LINE
5
2cd1
8
ADD_LINE
6
HIDDEN
62
  3
10
956.538
20
328.378
30
0.0
11
900.960
21
328.378
31
0.0
0
LINE
5
2cd2
8
ADD_LINE
6
HIDDEN
62
  3
10
1157.816
20
358.453
30
0.0
11
1125.485
21
358.453
31
0.0
0
LINE
5
2cd3
8
0-0
6
CONTINUOUS
62
  7
10
1396.466
20
996.668
30
0.0
11
1421.466
21
996.668
31
0.0
0
CIRCLE
5
2cd4
8
0-0
6
CONTINUOUS
62
  7
10
1103.575
20
984.668
30
0.0
40
3.000
0
CIRCLE
5
2cd5
8
0-0
6
CONTINUOUS
62
  7
10
1018.575
20
984.668
30
0.0
40
3.000
0
CIRCLE
5
2cd6
8
ADD_LINE
6
HIDDEN
62
  3
10
932.432
20
328.378
30
0.0
40
3.000
0
ARC
5
2cd7
8
0-0
6
CONTINUOUS
62
  7
10
1059.818
20
674.942
30
0.0
40
326.141
50
258.287140
51
290.789246
0
ARC
5
2cd8
8
0-0
6
CONTINUOUS
62
  7
10
1095.150
20
700.546
30
0.0
40
359.589
50
249.688187
51
253.597549
0
ARC
5
2cd9
8
0-0
6
CONTINUOUS
62
  7
10
1096.498
20
725.783
30
0.0
40
401.491
50
249.914139
51
257.848846
0
ARC
5
2cda
8
0-0
6
CONTINUOUS
62
  7
10
945.137
20
340.321
30
0.0
40
11.534
50
96.184937
51
170.010605
0
ARC
5
2cdb
8
0-0
6
CONTINUOUS
62
  7
10
942.621
20
308.956
30
0.0
40
42.851
50
68.085388
51
88.297134
0
ARC
5
2cdc
8
0-0
6
CONTINUOUS
62
  7
10
1063.533
20
609.507
30
0.0
40
280.988
50
259.429626
51
295.290863
0
CIRCLE
5
2cdd
8
ADD_LINE
6
HIDDEN
62
  3
10
1138.575
20
358.453
30
0.0
40
3.000
0
TEXT
5
2cde
100
AcDbEntity
8
0-0
62
7
100
AcDbText
10
634.960
20
1222.033
30
0.0
40
9.750
41
0.800
50
0.002
1
55
100
AcDbText
0
TEXT
5
2cdf
100
AcDbEntity
8
0-0
62
7
100
AcDbText
10
1052.700
20
1222.033
30
0.0
40
9.750
41
0.800
50
0.000
1
243
100
AcDbText
0
TEXT
5
2ce0
100
AcDbEntity
8
0-0
62
7
100
AcDbText
10
949.325
20
1157.168
30
0.0
40
9.750
41
0.800
50
0.002
1
30
100
AcDbText
0
TEXT
5
2ce1
100
AcDbEntity
8
0-0
62
7
100
AcDbText
10
1067.700
20
1157.168
30
0.0
40
9.750
41
0.800
50
0.000
1
213
100
AcDbText
0
TEXT
5
2ce2
100
AcDbEntity
8
0-0
62
7
100
AcDbText
10
1423.216
20
1157.168
30
0.0
40
9.750
41
0.800
50
0.001
1
16
100
AcDbText
0
TEXT
5
2ce3
100
AcDbEntity
8
0-0
62
7
100
AcDbText
10
821.939
20
322.615
30
0.0
40
9.750
41
0.800
50
90.000
1
80
100
AcDbText
0
TEXT
5
2ce4
100
AcDbEntity
8
0-0
62
7
100
AcDbText
10
1016.700
20
476.824
30
0.0
40
9.750
41
0.800
50
0.000
1
225
100
AcDbText
0
TEXT
5
2ce5
100
AcDbEntity
8
0-0
62
7
100
AcDbText
10
1039.200
20
569.330
30
0.0
40
9.750
41
0.800
50
0.000
1
270
100
AcDbText
0
TEXT
5
2ce6
100
AcDbEntity
8
0-0
62
7
100
AcDbText
10
617.460
20
569.330
30
0.0
40
9.750
41
0.800
50
0.000
1
90
100
AcDbText
0
TEXT
5
2ce7
100
AcDbEntity
8
0-0
62
7
100
AcDbText
10
1427.216
20
569.330
30
0.0
40
9.750
41
0.800
50
0.000
1
24
100
AcDbText
0
TEXT
5
2ce8
100
AcDbEntity
8
0-0
62
7
100
AcDbText
10
396.743
20
838.793
30
0.0
40
9.750
41
0.800
50
90.000
1
313
100
AcDbText
0
TEXT
5
2ce9
100
AcDbEntity
8
0-0
62
7
100
AcDbText
10
1288.635
20
845.293
30
0.0
40
9.750
41
0.800
50
90.000
1
300
100
AcDbText
0
POINT
5
2cea
8
0-0
62
  7
10
613.710
20
1219.533
30
0.0
0
POINT
5
2ceb
8
0-0
62
  7
10
668.710
20
1219.533
30
0.0
0
POINT
5
2cec
8
0-0
62
  7
10
940.575
20
1219.533
30
0.0
0
POINT
5
2ced
8
0-0
62
  7
10
1183.575
20
1219.533
30
0.0
0
POINT
5
2cee
8
0-0
62
  7
10
940.575
20
1154.668
30
0.0
0
POINT
5
2cef
8
0-0
62
  7
10
970.575
20
1154.668
30
0.0
0
POINT
5
2cf0
8
0-0
62
  7
10
1183.575
20
1154.668
30
0.0
0
POINT
5
2cf1
8
0-0
62
  7
10
1421.466
20
1154.668
30
0.0
0
POINT
5
2cf2
8
0-0
62
  7
10
1437.466
20
1154.668
30
0.0
0
POINT
5
2cf3
8
0-0
62
  7
10
824.439
20
288.839
30
0.0
0
POINT
5
2cf4
8
0-0
62
  7
10
824.439
20
368.891
30
0.0
0
POINT
5
2cf5
8
0-0
62
  7
10
913.575
20
474.324
30
0.0
0
POINT
5
2cf6
8
0-0
62
  7
10
1138.575
20
474.324
30
0.0
0
POINT
5
2cf7
8
0-0
62
  7
10
913.575
20
566.830
30
0.0
0
POINT
5
2cf8
8
0-0
62
  7
10
1183.575
20
566.830
30
0.0
0
POINT
5
2cf9
8
0-0
62
  7
10
578.710
20
566.830
30
0.0
0
POINT
5
2cfa
8
0-0
62
  7
10
668.710
20
566.830
30
0.0
0
POINT
5
2cfb
8
0-0
62
  7
10
1421.466
20
566.830
30
0.0
0
POINT
5
2cfc
8
0-0
62
  7
10
1445.466
20
566.830
30
0.0
0
POINT
5
2cfd
8
0-0
62
  7
10
399.243
20
1004.668
30
0.0
0
POINT
5
2cfe
8
0-0
62
  7
10
399.243
20
691.668
30
0.0
0
POINT
5
2cff
8
0-0
62
  7
10
1291.135
20
1004.668
30
0.0
0
POINT
5
2d00
8
0-0
62
  7
10
1291.135
20
704.668
30
0.0
0
ENDSEC
0
EOF
