0
SECTION
2
HEADER
  9
$EXTMIN
10
0
20
0
30
0
  9
$EXTMAX
10
1198.609
20
1310.816
30
0
  9
$LTSCALE
40
5.000
  9
$DIMSCALE
40
5.000
  9
$PDMODE
70
0
  9
$PDSIZE
40
40
0
ENDSEC
0
SECTION
2
TABLES
0
TABLE
2
LTYPE
70
9
0
LTYPE
5
1f4
2
CONTINUOUS
70
0
3
実線
72
65
73
0
40
0.0
0
LTYPE
5
1f5
2
DOT
70
0
3
--  --  --  --  --  --  --  --     
72
65
73
2
40
5.000
49
1.000
49
-4.000
0
LTYPE
5
1f6
2
DASHED
70
0
3
----    ----    ----    ----    
72
65
73
2
40
5.000
49
2.000
49
-3.000
0
LTYPE
5
1f7
2
DASHED2
70
0
3
------  ------  ------  ------ 
72
65
73
2
40
10.000
49
4.000
49
-6.000
0
LTYPE
5
1f8
2
CENTER
70
0
3
----- - ----- - ----- - ----- - 
72
65
73
4
40
9.000
49
6.000
49
-1.000
49
1.000
49
-1.000
0
LTYPE
5
1f9
2
CENTER2
70
0
3
----------  --  ----------  -- 
72
65
73
4
40
18.000
49
12.000
49
-2.000
49
2.000
49
-2.000
0
LTYPE
5
1fa
2
PHANTOM
70
0
3
--- - - --- - - --- - - --- - -
72
65
73
6
40
10.000
49
5.000
49
-1.000
49
1.000
49
-1.000
49
1.000
49
-1.000
0
LTYPE
5
1fb
2
PHANTOM2
70
0
3
--------  -  -  --------  -  -
72
65
73
6
40
16.000
49
6.000
49
-2.000
49
2.000
49
-2.000
49
2.000
49
-2.000
0
LTYPE
5
1fc
2
HIDDEN
70
0
3
-   -   -   -   -   -   -   -   
72
65
73
2
40
2.500
49
0.500
49
-2.000
0
ENDTAB
0
TABLE
2
STYLE
70
1
0
STYLE
5
1fd
100
AcDbSymbolTableRecord
100
AcDbTextStyleTableRecord
2
STANDARD
70
0
40
0.0
41
1.0
50
0.0
71
0
42
0.0
3
txt.shx
4
extfont.shx
0
STYLE
5
1fe
100
AcDbSymbolTableRecord
100
AcDbTextStyleTableRecord
2
TATEGAKI
70
4
40
0.0
41
1.0
50
0.0
71
0
42
0.0
3
txt.shx
4
extfont.shx
0
STYLE
5
1ff
100
AcDbSymbolTableRecord
100
AcDbTextStyleTableRecord
2
MT
70
0
40
0.0
41
1.0
50
0.0
71
0
42
0.0
3
MS Mincho
4

0
STYLE
5
200
100
AcDbSymbolTableRecord
100
AcDbTextStyleTableRecord
2
TMT
70
4
40
0.0
41
1.0
50
0.0
71
0
42
0.0
3
@MS Mincho
4

0
ENDTAB
0
TABLE
2
LAYER
5
3e8
100
AcDbSymbolTable
70
10
0
LAYER
5
3e9
100
AcDbSymbolTableRecord
100
AcDbLayerTableRecord
2
0
70
64
62
  7
  6
CONTINUOUS
0
LAYER
5
3ea
100
AcDbSymbolTableRecord
100
AcDbLayerTableRecord
2
0-0
70
64
62
  7
  6
CONTINUOUS
0
LAYER
5
3eb
100
AcDbSymbolTableRecord
100
AcDbLayerTableRecord
2
0-2
70
64
62
  7
  6
CONTINUOUS
0
LAYER
5
3ec
100
AcDbSymbolTableRecord
100
AcDbLayerTableRecord
2
ADD_LINE
70
64
62
  -7
  6
CONTINUOUS
0
ENDTAB
0
ENDSEC
0
SECTION
2
ENTITIES
0
LINE
5
3ed
8
0-0
6
CONTINUOUS
62
  7
10
1098.649
20
754.054
30
0.0
11
1098.649
21
549.054
31
0.0
0
LINE
5
3ee
8
0-0
6
CONTINUOUS
62
  7
10
853.649
20
754.054
30
0.0
11
1098.649
21
754.054
31
0.0
0
LINE
5
3ef
8
0-0
6
CONTINUOUS
62
  7
10
1098.649
20
1152.811
30
0.0
11
1098.649
21
1110.811
31
0.0
0
LINE
5
3f0
8
0-0
6
CONTINUOUS
62
  7
10
853.649
20
1150.311
30
0.0
11
853.649
21
1110.811
31
0.0
0
LINE
5
3f1
8
0-0
6
CONTINUOUS
62
  7
10
853.076
20
1152.811
30
0.0
11
1098.649
21
1152.811
31
0.0
0
LINE
5
3f2
8
0-0
6
CONTINUOUS
62
  7
10
853.649
20
1135.811
30
0.0
11
1098.649
21
1135.811
31
0.0
0
LINE
5
3f3
8
0-0
6
CONTINUOUS
62
  7
10
813.649
20
993.243
30
0.0
11
853.649
21
993.243
31
0.0
0
LINE
5
3f4
8
0-0
6
CONTINUOUS
62
  7
10
813.649
20
831.081
30
0.0
11
813.649
21
993.243
31
0.0
0
LINE
5
3f5
8
0-0
6
CONTINUOUS
62
  7
10
853.649
20
831.081
30
0.0
11
853.649
21
993.243
31
0.0
0
LINE
5
3f6
8
0-0
6
CONTINUOUS
62
  7
10
853.649
20
993.243
30
0.0
11
1098.649
21
993.243
31
0.0
0
LINE
5
3f7
8
0-0
6
CONTINUOUS
62
  7
10
1098.649
20
831.081
30
0.0
11
1098.649
21
993.243
31
0.0
0
LINE
5
3f8
8
0-0
6
CONTINUOUS
62
  7
10
1198.609
20
754.054
30
0.0
11
1198.609
21
549.054
31
0.0
0
LINE
5
3f9
8
0-0
6
CONTINUOUS
62
  7
10
1154.150
20
754.054
30
0.0
11
1198.609
21
754.054
31
0.0
0
LINE
5
3fa
8
0-0
6
CONTINUOUS
62
  7
10
1154.150
20
549.054
30
0.0
11
1198.609
21
549.054
31
0.0
0
LINE
5
3fb
8
0-0
6
CONTINUOUS
62
  7
10
1198.609
20
1135.811
30
0.0
11
1198.609
21
1110.811
31
0.0
0
LINE
5
3fc
8
0-0
6
CONTINUOUS
62
  7
10
1154.150
20
1135.811
30
0.0
11
1198.609
21
1135.811
31
0.0
0
LINE
5
3fd
8
0-0
6
CONTINUOUS
62
  7
10
1154.150
20
1110.811
30
0.0
11
1198.609
21
1110.811
31
0.0
0
LINE
5
3fe
8
0-0
6
CONTINUOUS
62
  7
10
853.649
20
1110.811
30
0.0
11
1098.649
21
1110.811
31
0.0
0
LINE
5
3ff
8
ADD_LINE
6
HIDDEN
62
  3
10
1098.649
20
1110.811
30
0.0
11
1111.015
21
1110.811
31
0.0
0
LINE
5
400
8
0-0
6
CONTINUOUS
62
  7
10
528.631
20
559.054
30
0.0
11
527.631
21
549.054
31
0.0
0
LINE
5
401
8
0-0
6
CONTINUOUS
62
  7
10
833.649
20
436.367
30
0.0
11
1098.649
21
436.367
31
0.0
0
LINE
5
402
8
0-0
6
CONTINUOUS
62
  7
10
833.649
20
497.318
30
0.0
11
833.649
21
436.367
31
0.0
0
LINE
5
403
8
0-0
6
CONTINUOUS
62
  7
10
1098.649
20
497.318
30
0.0
11
1098.649
21
436.367
31
0.0
0
LINE
5
404
8
0-0
6
CONTINUOUS
62
  7
10
813.649
20
1247.887
30
0.0
11
853.649
21
1247.887
31
0.0
0
LINE
5
405
8
0-0
6
CONTINUOUS
62
  7
10
813.649
20
1196.109
30
0.0
11
813.649
21
1247.887
31
0.0
0
LINE
5
406
8
0-0
6
CONTINUOUS
62
  7
10
853.649
20
1196.109
30
0.0
11
853.649
21
1247.887
31
0.0
0
LINE
5
407
8
0-0
6
CONTINUOUS
62
  7
10
853.649
20
1247.887
30
0.0
11
1098.649
21
1247.887
31
0.0
0
LINE
5
408
8
0-0
6
CONTINUOUS
62
  7
10
1098.649
20
1196.109
30
0.0
11
1098.649
21
1247.887
31
0.0
0
LINE
5
409
8
0-0
6
CONTINUOUS
62
  7
10
813.649
20
1150.311
30
0.0
11
813.649
21
1110.811
31
0.0
0
LINE
5
40a
8
0-0
6
CONTINUOUS
62
  7
10
527.631
20
754.054
30
0.0
11
525.481
21
775.554
31
0.0
0
LINE
5
40b
8
0-0
6
CONTINUOUS
62
  7
10
525.931
20
771.054
30
0.0
11
525.481
21
775.554
31
0.0
0
LINE
5
40c
8
0-0
6
CONTINUOUS
62
  7
10
528.631
20
744.054
30
0.0
11
527.631
21
754.054
31
0.0
0
LINE
5
40d
8
0-0
6
CONTINUOUS
62
  7
10
527.631
20
549.054
30
0.0
11
528.631
21
559.054
31
0.0
0
LINE
5
40e
8
0-0
6
CONTINUOUS
62
  7
10
527.631
20
549.054
30
0.0
11
525.481
21
527.554
31
0.0
0
LINE
5
40f
8
0-0
6
CONTINUOUS
62
  7
10
525.931
20
532.054
30
0.0
11
525.481
21
527.554
31
0.0
0
LINE
5
410
8
0-0
6
CONTINUOUS
62
  7
10
528.631
20
559.054
30
0.0
11
527.631
21
549.054
31
0.0
0
LINE
5
411
8
0-0
6
CONTINUOUS
62
  7
10
525.481
20
775.554
30
0.0
11
569.485
21
770.151
31
0.0
0
LINE
5
412
8
0-0
6
CONTINUOUS
62
  7
10
527.113
20
759.234
30
0.0
11
556.113
21
755.673
31
0.0
0
LINE
5
413
8
0-0
6
CONTINUOUS
62
  7
10
556.113
20
755.673
30
0.0
11
569.485
21
770.151
31
0.0
0
LINE
5
414
8
0-0
6
CONTINUOUS
62
  7
10
527.631
20
549.054
30
0.0
11
528.631
21
559.054
31
0.0
0
LINE
5
415
8
0-0
6
CONTINUOUS
62
  7
10
527.631
20
549.054
30
0.0
11
525.481
21
527.554
31
0.0
0
LINE
5
416
8
0-0
6
CONTINUOUS
62
  7
10
525.931
20
532.054
30
0.0
11
525.481
21
527.554
31
0.0
0
LINE
5
417
8
0-0
6
CONTINUOUS
62
  7
10
528.631
20
559.054
30
0.0
11
527.631
21
549.054
31
0.0
0
LINE
5
418
8
0-0
6
CONTINUOUS
62
  7
10
525.481
20
527.554
30
0.0
11
569.485
21
532.957
31
0.0
0
LINE
5
419
8
0-0
6
CONTINUOUS
62
  7
10
527.113
20
543.875
30
0.0
11
556.113
21
547.435
31
0.0
0
LINE
5
41a
8
0-0
6
CONTINUOUS
62
  7
10
556.113
20
547.435
30
0.0
11
569.485
21
532.957
31
0.0
0
LINE
5
41b
8
0-0
6
CONTINUOUS
62
  7
10
527.631
20
754.054
30
0.0
11
528.631
21
744.054
31
0.0
0
LINE
5
41c
8
0-0
6
CONTINUOUS
62
  7
10
564.688
20
584.554
30
0.0
11
583.931
21
584.554
31
0.0
0
LINE
5
41d
8
0-0
6
CONTINUOUS
62
  7
10
833.649
20
686.054
30
0.0
11
833.649
21
714.054
31
0.0
0
LINE
5
41e
8
0-0
6
CONTINUOUS
62
  7
10
813.649
20
754.054
30
0.0
11
813.649
21
714.054
31
0.0
0
LINE
5
41f
8
0-0
6
CONTINUOUS
62
  7
10
813.649
20
714.054
30
0.0
11
853.649
21
714.054
31
0.0
0
LINE
5
420
8
0-0
6
CONTINUOUS
62
  7
10
853.649
20
754.054
30
0.0
11
853.649
21
714.054
31
0.0
0
LINE
5
421
8
0-0
6
CONTINUOUS
62
  7
10
813.649
20
549.054
30
0.0
11
813.649
21
589.054
31
0.0
0
LINE
5
422
8
0-0
6
CONTINUOUS
62
  7
10
813.649
20
589.054
30
0.0
11
853.649
21
589.054
31
0.0
0
LINE
5
423
8
0-0
6
CONTINUOUS
62
  7
10
853.649
20
549.054
30
0.0
11
853.649
21
589.054
31
0.0
0
LINE
5
424
8
0-0
6
CONTINUOUS
62
  7
10
853.649
20
549.054
30
0.0
11
1098.649
21
549.054
31
0.0
0
LINE
5
425
8
0-0
6
CONTINUOUS
62
  7
10
833.649
20
686.054
30
0.0
11
833.649
21
589.054
31
0.0
0
LINE
5
426
8
0-0
6
CONTINUOUS
62
  7
10
564.688
20
718.554
30
0.0
11
583.931
21
718.554
31
0.0
0
LINE
5
427
8
0-2
6
CONTINUOUS
62
  7
10
689.189
20
771.054
30
0.0
11
689.189
21
714.054
31
0.0
0
LINE
5
428
8
0-2
6
CONTINUOUS
62
  7
10
766.216
20
771.054
30
0.0
11
689.189
21
771.054
31
0.0
0
LINE
5
429
8
0-2
6
CONTINUOUS
62
  7
10
766.216
20
714.054
30
0.0
11
689.189
21
714.054
31
0.0
0
LINE
5
42a
8
0-2
6
CONTINUOUS
62
  7
10
766.216
20
589.054
30
0.0
11
689.189
21
589.054
31
0.0
0
LINE
5
42b
8
0-2
6
CONTINUOUS
62
  7
10
689.189
20
589.054
30
0.0
11
689.189
21
532.054
31
0.0
0
LINE
5
42c
8
0-2
6
CONTINUOUS
62
  7
10
766.216
20
532.054
30
0.0
11
689.189
21
532.054
31
0.0
0
ARC
5
42d
8
0-0
6
CONTINUOUS
62
  7
10
833.649
20
750.789
30
0.0
40
20.265
50
9.270966
51
170.729034
0
ARC
5
42e
8
0-0
6
CONTINUOUS
62
  7
10
832.823
20
1128.130
30
0.0
40
22.197
50
20.246384
51
149.752441
0
CIRCLE
5
42f
8
ADD_LINE
6
HIDDEN
62
  3
10
1098.649
20
1110.811
30
0.0
40
3.000
0
ARC
5
430
8
0-0
6
CONTINUOUS
62
  7
10
833.649
20
1146.440
30
0.0
40
20.371
50
10.954697
51
169.045303
0
ARC
5
431
8
0-0
6
CONTINUOUS
62
  7
10
833.649
20
1209.813
30
0.0
40
101.002
50
258.579163
51
281.420868
0
ARC
5
432
8
0-0
6
CONTINUOUS
62
  7
10
377.088
20
651.554
30
0.0
40
177.543
50
328.600647
51
360.000000
0
ARC
5
433
8
0-0
6
CONTINUOUS
62
  7
10
377.088
20
651.554
30
0.0
40
177.543
50
360.000000
51
391.399353
0
ARC
5
434
8
0-0
6
CONTINUOUS
62
  7
10
380.454
20
689.406
30
0.0
40
205.554
50
8.152115
51
23.129807
0
ARC
5
435
8
0-0
6
CONTINUOUS
62
  7
10
190.018
20
651.554
30
0.0
40
380.614
50
344.124084
51
15.875916
0
ARC
5
436
8
0-0
6
CONTINUOUS
62
  7
10
380.454
20
613.702
30
0.0
40
205.554
50
336.870178
51
351.847900
0
ARC
5
437
8
0-0
6
CONTINUOUS
62
  7
10
833.649
20
552.319
30
0.0
40
20.265
50
189.270966
51
350.729034
0
CIRCLE
5
438
8
0-0
6
CONTINUOUS
62
  7
10
923.649
20
639.054
30
0.0
40
3.000
0
CIRCLE
5
439
8
0-0
6
CONTINUOUS
62
  7
10
923.649
20
664.054
30
0.0
40
3.000
0
TEXT
5
43a
100
AcDbEntity
8
0-0
62
7
100
AcDbText
10
827.399
20
995.743
30
0.0
40
9.750
41
0.800
50
0.000
1
40
100
AcDbText
0
TEXT
5
43b
100
AcDbEntity
8
0-0
62
7
100
AcDbText
10
966.774
20
995.743
30
0.0
40
9.750
41
0.800
50
0.000
1
245
100
AcDbText
0
TEXT
5
43c
100
AcDbEntity
8
0-0
62
7
100
AcDbText
10
1196.109
20
642.179
30
0.0
40
9.750
41
0.800
50
90.000
1
205
100
AcDbText
0
TEXT
5
43d
100
AcDbEntity
8
0-0
62
7
100
AcDbText
10
1196.109
20
1117.061
30
0.0
40
9.750
41
0.800
50
90.000
1
25
100
AcDbText
0
TEXT
5
43e
100
AcDbEntity
8
0-0
62
7
100
AcDbText
10
956.774
20
438.867
30
0.0
40
9.750
41
0.800
50
0.000
1
265
100
AcDbText
0
TEXT
5
43f
100
AcDbEntity
8
0-0
62
7
100
AcDbText
10
827.399
20
1250.387
30
0.0
40
9.750
41
0.800
50
0.000
1
40
100
AcDbText
0
TEXT
5
440
100
AcDbEntity
8
0-0
62
7
100
AcDbText
10
966.774
20
1250.387
30
0.0
40
9.750
41
0.800
50
0.000
1
245
100
AcDbText
0
TEXT
5
441
100
AcDbEntity
8
0-2
62
7
100
AcDbText
10
686.689
20
736.304
30
0.0
40
9.750
41
0.800
50
90.000
1
57
100
AcDbText
0
TEXT
5
442
100
AcDbEntity
8
0-2
62
7
100
AcDbText
10
686.689
20
554.304
30
0.0
40
9.750
41
0.800
50
90.000
1
57
100
AcDbText
0
POINT
5
443
8
0-0
62
  7
10
813.649
20
993.243
30
0.0
0
POINT
5
444
8
0-0
62
  7
10
853.649
20
993.243
30
0.0
0
POINT
5
445
8
0-0
62
  7
10
1098.649
20
993.243
30
0.0
0
POINT
5
446
8
0-0
62
  7
10
1198.609
20
754.054
30
0.0
0
POINT
5
447
8
0-0
62
  7
10
1198.609
20
549.054
30
0.0
0
POINT
5
448
8
0-0
62
  7
10
1198.609
20
1135.811
30
0.0
0
POINT
5
449
8
0-0
62
  7
10
1198.609
20
1110.811
30
0.0
0
POINT
5
44a
8
0-0
62
  7
10
833.649
20
436.367
30
0.0
0
POINT
5
44b
8
0-0
62
  7
10
1098.649
20
436.367
30
0.0
0
POINT
5
44c
8
0-0
62
  7
10
813.649
20
1247.887
30
0.0
0
POINT
5
44d
8
0-0
62
  7
10
853.649
20
1247.887
30
0.0
0
POINT
5
44e
8
0-0
62
  7
10
1098.649
20
1247.887
30
0.0
0
POINT
5
44f
8
0-2
62
  7
10
689.189
20
771.054
30
0.0
0
POINT
5
450
8
0-2
62
  7
10
689.189
20
714.054
30
0.0
0
POINT
5
451
8
0-2
62
  7
10
689.189
20
589.054
30
0.0
0
POINT
5
452
8
0-2
62
  7
10
689.189
20
532.054
30
0.0
0
ENDSEC
0
EOF
