0
SECTION
2
HEADER
  9
$EXTMIN
10
0
20
0
30
0
  9
$EXTMAX
10
1605.406
20
1578.475
30
0
  9
$LTSCALE
40
5.000
  9
$DIMSCALE
40
5.000
  9
$PDMODE
70
0
  9
$PDSIZE
40
40
0
ENDSEC
0
SECTION
2
TABLES
0
TABLE
2
LTYPE
70
9
0
LTYPE
5
1f4
2
CONTINUOUS
70
0
3
実線
72
65
73
0
40
0.0
0
LTYPE
5
1f5
2
DOT
70
0
3
--  --  --  --  --  --  --  --     
72
65
73
2
40
5.000
49
1.000
49
-4.000
0
LTYPE
5
1f6
2
DASHED
70
0
3
----    ----    ----    ----    
72
65
73
2
40
5.000
49
2.000
49
-3.000
0
LTYPE
5
1f7
2
DASHED2
70
0
3
------  ------  ------  ------ 
72
65
73
2
40
10.000
49
4.000
49
-6.000
0
LTYPE
5
1f8
2
CENTER
70
0
3
----- - ----- - ----- - ----- - 
72
65
73
4
40
9.000
49
6.000
49
-1.000
49
1.000
49
-1.000
0
LTYPE
5
1f9
2
CENTER2
70
0
3
----------  --  ----------  -- 
72
65
73
4
40
18.000
49
12.000
49
-2.000
49
2.000
49
-2.000
0
LTYPE
5
1fa
2
PHANTOM
70
0
3
--- - - --- - - --- - - --- - -
72
65
73
6
40
10.000
49
5.000
49
-1.000
49
1.000
49
-1.000
49
1.000
49
-1.000
0
LTYPE
5
1fb
2
PHANTOM2
70
0
3
--------  -  -  --------  -  -
72
65
73
6
40
16.000
49
6.000
49
-2.000
49
2.000
49
-2.000
49
2.000
49
-2.000
0
LTYPE
5
1fc
2
HIDDEN
70
0
3
-   -   -   -   -   -   -   -   
72
65
73
2
40
2.500
49
0.500
49
-2.000
0
ENDTAB
0
TABLE
2
STYLE
70
1
0
STYLE
5
1fd
100
AcDbSymbolTableRecord
100
AcDbTextStyleTableRecord
2
STANDARD
70
0
40
0.0
41
1.0
50
0.0
71
0
42
0.0
3
txt.shx
4
extfont.shx
0
STYLE
5
1fe
100
AcDbSymbolTableRecord
100
AcDbTextStyleTableRecord
2
TATEGAKI
70
4
40
0.0
41
1.0
50
0.0
71
0
42
0.0
3
txt.shx
4
extfont.shx
0
STYLE
5
1ff
100
AcDbSymbolTableRecord
100
AcDbTextStyleTableRecord
2
MT
70
0
40
0.0
41
1.0
50
0.0
71
0
42
0.0
3
MS Mincho
4

0
STYLE
5
200
100
AcDbSymbolTableRecord
100
AcDbTextStyleTableRecord
2
TMT
70
4
40
0.0
41
1.0
50
0.0
71
0
42
0.0
3
@MS Mincho
4

0
ENDTAB
0
TABLE
2
LAYER
5
76b
100
AcDbSymbolTable
70
10
0
LAYER
5
76c
100
AcDbSymbolTableRecord
100
AcDbLayerTableRecord
2
0
70
64
62
  7
  6
CONTINUOUS
0
LAYER
5
76d
100
AcDbSymbolTableRecord
100
AcDbLayerTableRecord
2
0-0
70
64
62
  7
  6
CONTINUOUS
0
LAYER
5
76e
100
AcDbSymbolTableRecord
100
AcDbLayerTableRecord
2
ADD_LINE
70
64
62
  -7
  6
CONTINUOUS
0
ENDTAB
0
ENDSEC
0
SECTION
2
ENTITIES
0
LINE
5
76f
8
0-0
6
CONTINUOUS
62
  7
10
1129.189
20
814.392
30
0.0
11
1129.189
21
669.392
31
0.0
0
LINE
5
770
8
0-0
6
CONTINUOUS
62
  7
10
839.189
20
669.392
30
0.0
11
1129.189
21
669.392
31
0.0
0
LINE
5
771
8
0-0
6
CONTINUOUS
62
  7
10
839.189
20
814.392
30
0.0
11
839.189
21
669.392
31
0.0
0
LINE
5
772
8
0-0
6
CONTINUOUS
62
  7
10
839.189
20
814.392
30
0.0
11
1129.189
21
814.392
31
0.0
0
LINE
5
773
8
0-0
6
CONTINUOUS
62
  7
10
1129.189
20
795.892
30
0.0
11
1159.189
21
785.892
31
0.0
0
LINE
5
774
8
0-0
6
CONTINUOUS
62
  7
10
1159.189
20
785.892
30
0.0
11
1159.189
21
697.892
31
0.0
0
LINE
5
775
8
0-0
6
CONTINUOUS
62
  7
10
1159.189
20
697.892
30
0.0
11
1129.189
21
687.892
31
0.0
0
LINE
5
776
8
ADD_LINE
6
HIDDEN
62
  3
10
522.973
20
899.527
30
0.0
11
522.973
21
623.851
31
0.0
0
LINE
5
777
8
0-0
6
CONTINUOUS
62
  7
10
1129.189
20
402.635
30
0.0
11
1159.189
21
403.635
31
0.0
0
LINE
5
778
8
0-0
6
CONTINUOUS
62
  7
10
1129.189
20
460.635
30
0.0
11
1129.189
21
397.635
31
0.0
0
LINE
5
779
8
0-0
6
CONTINUOUS
62
  7
10
1129.189
20
440.635
30
0.0
11
1159.189
21
435.635
31
0.0
0
LINE
5
77a
8
0-0
6
CONTINUOUS
62
  7
10
1159.189
20
435.635
30
0.0
11
1159.189
21
403.635
31
0.0
0
LINE
5
77b
8
0-0
6
CONTINUOUS
62
  7
10
839.189
20
465.635
30
0.0
11
824.033
21
321.429
31
0.0
0
LINE
5
77c
8
0-0
6
CONTINUOUS
62
  7
10
874.189
20
460.635
30
0.0
11
1129.189
21
460.635
31
0.0
0
LINE
5
77d
8
0-0
6
CONTINUOUS
62
  7
10
824.033
20
321.429
30
0.0
11
862.763
21
317.359
31
0.0
0
LINE
5
77e
8
0-0
6
CONTINUOUS
62
  7
10
852.133
20
368.751
30
0.0
11
869.040
21
366.974
31
0.0
0
LINE
5
77f
8
0-0
6
CONTINUOUS
62
  7
10
869.040
20
366.974
30
0.0
11
863.814
21
317.248
31
0.0
0
LINE
5
780
8
0-0
6
CONTINUOUS
62
  7
10
855.169
20
397.635
30
0.0
11
852.133
21
368.751
31
0.0
0
LINE
5
781
8
0-0
6
CONTINUOUS
62
  7
10
855.169
20
397.635
30
0.0
11
1129.189
21
397.635
31
0.0
0
LINE
5
782
8
0-0
6
CONTINUOUS
62
  7
10
1447.297
20
814.392
30
0.0
11
1438.408
21
774.392
31
0.0
0
LINE
5
783
8
0-0
6
CONTINUOUS
62
  7
10
1438.408
20
709.392
30
0.0
11
1447.297
21
669.392
31
0.0
0
LINE
5
784
8
0-0
6
CONTINUOUS
62
  7
10
1129.189
20
1133.878
30
0.0
11
1159.189
21
1128.878
31
0.0
0
LINE
5
785
8
0-0
6
CONTINUOUS
62
  7
10
874.189
20
1153.878
30
0.0
11
1129.189
21
1153.878
31
0.0
0
LINE
5
786
8
0-0
6
CONTINUOUS
62
  7
10
824.033
20
1014.673
30
0.0
11
862.763
21
1010.602
31
0.0
0
LINE
5
787
8
0-0
6
CONTINUOUS
62
  7
10
840.915
20
1026.975
30
0.0
11
865.277
21
1024.415
31
0.0
0
LINE
5
788
8
0-0
6
CONTINUOUS
62
  7
10
865.277
20
1024.415
30
0.0
11
863.814
21
1010.492
31
0.0
0
LINE
5
789
8
0-0
6
CONTINUOUS
62
  7
10
1159.189
20
1128.878
30
0.0
11
1159.189
21
1118.740
31
0.0
0
LINE
5
78a
8
0-0
6
CONTINUOUS
62
  7
10
1159.189
20
1118.740
30
0.0
11
1129.189
21
1118.740
31
0.0
0
LINE
5
78b
8
0-0
6
CONTINUOUS
62
  7
10
1089.189
20
1137.878
30
0.0
11
1129.189
21
1118.740
31
0.0
0
LINE
5
78c
8
0-0
6
CONTINUOUS
62
  7
10
1129.189
20
1153.878
30
0.0
11
1129.189
21
1133.878
31
0.0
0
LINE
5
78d
8
0-0
6
CONTINUOUS
62
  7
10
850.135
20
1137.878
30
0.0
11
1089.189
21
1137.878
31
0.0
0
LINE
5
78e
8
ADD_LINE
6
HIDDEN
62
  3
10
300.000
20
741.892
30
0.0
11
1605.406
21
741.892
31
0.0
0
LINE
5
78f
8
0-0
6
CONTINUOUS
62
  7
10
822.189
20
940.068
30
0.0
11
839.189
21
940.068
31
0.0
0
LINE
5
790
8
0-0
6
CONTINUOUS
62
  7
10
822.189
20
846.824
30
0.0
11
822.189
21
940.068
31
0.0
0
LINE
5
791
8
0-0
6
CONTINUOUS
62
  7
10
839.189
20
846.824
30
0.0
11
839.189
21
940.068
31
0.0
0
LINE
5
792
8
0-0
6
CONTINUOUS
62
  7
10
839.189
20
940.068
30
0.0
11
1129.189
21
940.068
31
0.0
0
LINE
5
793
8
0-0
6
CONTINUOUS
62
  7
10
1129.189
20
846.824
30
0.0
11
1129.189
21
940.068
31
0.0
0
LINE
5
794
8
0-0
6
CONTINUOUS
62
  7
10
1129.189
20
940.068
30
0.0
11
1159.189
21
940.068
31
0.0
0
LINE
5
795
8
0-0
6
CONTINUOUS
62
  7
10
1159.189
20
846.824
30
0.0
11
1159.189
21
940.068
31
0.0
0
LINE
5
796
8
0-0
6
CONTINUOUS
62
  7
10
1384.297
20
940.068
30
0.0
11
1447.297
21
940.068
31
0.0
0
LINE
5
797
8
0-0
6
CONTINUOUS
62
  7
10
1384.297
20
846.824
30
0.0
11
1384.297
21
940.068
31
0.0
0
LINE
5
798
8
0-0
6
CONTINUOUS
62
  7
10
1447.297
20
846.824
30
0.0
11
1447.297
21
940.068
31
0.0
0
LINE
5
799
8
0-0
6
CONTINUOUS
62
  7
10
450.473
20
940.068
30
0.0
11
595.473
21
940.068
31
0.0
0
LINE
5
79a
8
0-0
6
CONTINUOUS
62
  7
10
450.473
20
846.824
30
0.0
11
450.473
21
940.068
31
0.0
0
LINE
5
79b
8
0-0
6
CONTINUOUS
62
  7
10
595.473
20
846.824
30
0.0
11
595.473
21
940.068
31
0.0
0
LINE
5
79c
8
0-0
6
CONTINUOUS
62
  7
10
693.243
20
814.392
30
0.0
11
693.243
21
669.392
31
0.0
0
LINE
5
79d
8
0-0
6
CONTINUOUS
62
  7
10
758.108
20
814.392
30
0.0
11
693.243
21
814.392
31
0.0
0
LINE
5
79e
8
0-0
6
CONTINUOUS
62
  7
10
758.108
20
669.392
30
0.0
11
693.243
21
669.392
31
0.0
0
LINE
5
79f
8
0-0
6
CONTINUOUS
62
  7
10
1277.027
20
814.392
30
0.0
11
1277.027
21
669.392
31
0.0
0
LINE
5
7a0
8
0-0
6
CONTINUOUS
62
  7
10
1204.054
20
814.392
30
0.0
11
1277.027
21
814.392
31
0.0
0
LINE
5
7a1
8
0-0
6
CONTINUOUS
62
  7
10
1204.054
20
669.392
30
0.0
11
1277.027
21
669.392
31
0.0
0
LINE
5
7a2
8
0-0
6
CONTINUOUS
62
  7
10
1277.027
20
460.635
30
0.0
11
1277.027
21
397.635
31
0.0
0
LINE
5
7a3
8
0-0
6
CONTINUOUS
62
  7
10
1204.054
20
460.635
30
0.0
11
1277.027
21
460.635
31
0.0
0
LINE
5
7a4
8
0-0
6
CONTINUOUS
62
  7
10
1204.054
20
397.635
30
0.0
11
1277.027
21
397.635
31
0.0
0
LINE
5
7a5
8
0-0
6
CONTINUOUS
62
  7
10
1243.792
20
814.392
30
0.0
11
1243.792
21
785.892
31
0.0
0
LINE
5
7a6
8
0-0
6
CONTINUOUS
62
  7
10
1204.054
20
814.392
30
0.0
11
1243.792
21
814.392
31
0.0
0
LINE
5
7a7
8
0-0
6
CONTINUOUS
62
  7
10
1204.054
20
785.892
30
0.0
11
1243.792
21
785.892
31
0.0
0
LINE
5
7a8
8
0-0
6
CONTINUOUS
62
  7
10
1243.792
20
785.892
30
0.0
11
1243.792
21
697.892
31
0.0
0
LINE
5
7a9
8
0-0
6
CONTINUOUS
62
  7
10
1204.054
20
697.892
30
0.0
11
1243.792
21
697.892
31
0.0
0
LINE
5
7aa
8
0-0
6
CONTINUOUS
62
  7
10
1243.792
20
697.892
30
0.0
11
1243.792
21
669.392
31
0.0
0
LINE
5
7ab
8
0-0
6
CONTINUOUS
62
  7
10
1204.054
20
669.392
30
0.0
11
1243.792
21
669.392
31
0.0
0
LINE
5
7ac
8
0-0
6
CONTINUOUS
62
  7
10
817.224
20
256.646
30
0.0
11
857.004
21
252.464
31
0.0
0
LINE
5
7ad
8
0-0
6
CONTINUOUS
62
  7
10
821.365
20
296.045
30
0.0
11
817.224
21
256.646
31
0.0
0
LINE
5
7ae
8
0-0
6
CONTINUOUS
62
  7
10
861.146
20
291.864
30
0.0
11
857.004
21
252.464
31
0.0
0
LINE
5
7af
8
0-0
6
CONTINUOUS
62
  7
10
908.017
20
311.633
30
0.0
11
914.295
21
361.249
31
0.0
0
LINE
5
7b0
8
0-0
6
CONTINUOUS
62
  7
10
877.760
20
315.461
30
0.0
11
908.017
21
311.633
31
0.0
0
LINE
5
7b1
8
0-0
6
CONTINUOUS
62
  7
10
884.038
20
365.077
30
0.0
11
914.295
21
361.249
31
0.0
0
ARC
5
7b2
8
0-0
6
CONTINUOUS
62
  7
10
985.285
20
741.892
30
0.0
40
163.096
50
153.607101
51
206.392899
0
CIRCLE
5
7b3
8
0-0
6
CONTINUOUS
62
  7
10
1024.189
20
741.892
30
0.0
40
3.000
0
CIRCLE
5
7b4
8
0-0
6
CONTINUOUS
62
  7
10
1039.189
20
741.892
30
0.0
40
3.000
0
CIRCLE
5
7b5
8
0-0
6
CONTINUOUS
62
  7
10
522.973
20
741.892
30
0.0
40
72.500
0
ARC
5
7b6
8
0-0
6
CONTINUOUS
62
  7
10
976.906
20
378.261
30
0.0
40
163.095
50
147.607025
51
200.392990
0
ARC
5
7b7
8
0-0
6
CONTINUOUS
62
  7
10
886.634
20
672.751
30
0.0
40
212.481
50
257.097534
51
266.642212
0
ARC
5
7b8
8
0-0
6
CONTINUOUS
62
  7
10
1457.514
20
741.892
30
0.0
40
73.216
50
98.020889
51
261.979126
0
ARC
5
7b9
8
0-0
6
CONTINUOUS
62
  7
10
1460.717
20
741.892
30
0.0
40
39.420
50
124.466827
51
235.533173
0
ARC
5
7ba
8
0-0
6
CONTINUOUS
62
  7
10
1455.699
20
741.892
30
0.0
40
46.402
50
108.515182
51
251.484818
0
ARC
5
7bb
8
0-0
6
CONTINUOUS
62
  7
10
1461.878
20
741.892
30
0.0
40
57.580
50
108.825272
51
251.174728
0
ARC
5
7bc
8
0-0
6
CONTINUOUS
62
  7
10
976.906
20
1071.504
30
0.0
40
163.095
50
147.607025
51
200.392990
0
ARC
5
7bd
8
0-0
6
CONTINUOUS
62
  7
10
886.634
20
1365.995
30
0.0
40
212.481
50
257.097534
51
266.642212
0
ARC
5
7be
8
0-0
6
CONTINUOUS
62
  7
10
976.906
20
1071.504
30
0.0
40
143.095
50
152.364532
51
198.130615
0
CIRCLE
5
7bf
8
ADD_LINE
6
HIDDEN
62
  3
10
839.189
20
741.892
30
0.0
40
3.000
0
TEXT
5
7c0
100
AcDbEntity
8
0-0
62
7
100
AcDbText
10
824.439
20
942.568
30
0.0
40
9.750
41
0.800
50
0.000
1
17
100
AcDbText
0
TEXT
5
7c1
100
AcDbEntity
8
0-0
62
7
100
AcDbText
10
974.814
20
942.568
30
0.0
40
9.750
41
0.800
50
0.000
1
290
100
AcDbText
0
TEXT
5
7c2
100
AcDbEntity
8
0-0
62
7
100
AcDbText
10
1137.939
20
942.568
30
0.0
40
9.750
41
0.800
50
0.000
1
30
100
AcDbText
0
TEXT
5
7c3
100
AcDbEntity
8
0-0
62
7
100
AcDbText
10
1409.547
20
942.568
30
0.0
40
9.750
41
0.800
50
0.000
1
63
100
AcDbText
0
TEXT
5
7c4
100
AcDbEntity
8
0-0
62
7
100
AcDbText
10
513.598
20
942.568
30
0.0
40
9.750
41
0.800
50
0.000
1
145
100
AcDbText
0
TEXT
5
7c5
100
AcDbEntity
8
0-0
62
7
100
AcDbText
10
690.743
20
732.517
30
0.0
40
9.750
41
0.800
50
90.000
1
145
100
AcDbText
0
TEXT
5
7c6
100
AcDbEntity
8
0-0
62
7
100
AcDbText
10
1274.527
20
732.517
30
0.0
40
9.750
41
0.800
50
90.000
1
145
100
AcDbText
0
TEXT
5
7c7
100
AcDbEntity
8
0-0
62
7
100
AcDbText
10
1274.527
20
422.885
30
0.0
40
9.750
41
0.800
50
90.000
1
63
100
AcDbText
0
TEXT
5
7c8
100
AcDbEntity
8
0-0
62
7
100
AcDbText
10
1241.292
20
787.642
30
0.0
40
9.750
41
0.800
50
90.000
1
28.5
100
AcDbText
0
TEXT
5
7c9
100
AcDbEntity
8
0-0
62
7
100
AcDbText
10
1241.292
20
735.642
30
0.0
40
9.750
41
0.800
50
90.000
1
88
100
AcDbText
0
TEXT
5
7ca
100
AcDbEntity
8
0-0
62
7
100
AcDbText
10
1241.292
20
671.142
30
0.0
40
9.750
41
0.800
50
90.000
1
28.5
100
AcDbText
0
TEXT
5
7cb
100
AcDbEntity
8
0-0
62
7
100
AcDbText
10
831.160
20
257.695
30
0.0
40
9.750
41
0.800
50
354.000
1
40
100
AcDbText
0
TEXT
5
7cc
100
AcDbEntity
8
0-0
62
7
100
AcDbText
10
907.891
20
330.554
30
0.0
40
9.750
41
0.800
50
82.789
1
50
100
AcDbText
0
POINT
5
7cd
8
0-0
62
  7
10
822.189
20
940.068
30
0.0
0
POINT
5
7ce
8
0-0
62
  7
10
839.189
20
940.068
30
0.0
0
POINT
5
7cf
8
0-0
62
  7
10
1129.189
20
940.068
30
0.0
0
POINT
5
7d0
8
0-0
62
  7
10
1159.189
20
940.068
30
0.0
0
POINT
5
7d1
8
0-0
62
  7
10
1384.297
20
940.068
30
0.0
0
POINT
5
7d2
8
0-0
62
  7
10
1447.297
20
940.068
30
0.0
0
POINT
5
7d3
8
0-0
62
  7
10
450.473
20
940.068
30
0.0
0
POINT
5
7d4
8
0-0
62
  7
10
595.473
20
940.068
30
0.0
0
POINT
5
7d5
8
0-0
62
  7
10
693.243
20
814.392
30
0.0
0
POINT
5
7d6
8
0-0
62
  7
10
693.243
20
669.392
30
0.0
0
POINT
5
7d7
8
0-0
62
  7
10
1277.027
20
814.392
30
0.0
0
POINT
5
7d8
8
0-0
62
  7
10
1277.027
20
669.392
30
0.0
0
POINT
5
7d9
8
0-0
62
  7
10
1277.027
20
460.635
30
0.0
0
POINT
5
7da
8
0-0
62
  7
10
1277.027
20
397.635
30
0.0
0
POINT
5
7db
8
0-0
62
  7
10
1243.792
20
814.392
30
0.0
0
POINT
5
7dc
8
0-0
62
  7
10
1243.792
20
785.892
30
0.0
0
POINT
5
7dd
8
0-0
62
  7
10
1243.792
20
697.892
30
0.0
0
POINT
5
7de
8
0-0
62
  7
10
1243.792
20
669.392
30
0.0
0
POINT
5
7df
8
0-0
62
  7
10
817.224
20
256.646
30
0.0
0
POINT
5
7e0
8
0-0
62
  7
10
857.004
20
252.464
30
0.0
0
POINT
5
7e1
8
0-0
62
  7
10
908.017
20
311.633
30
0.0
0
POINT
5
7e2
8
0-0
62
  7
10
914.295
20
361.249
30
0.0
0
ENDSEC
0
EOF
