0
SECTION
2
HEADER
  9
$EXTMIN
10
0
20
0
30
0
  9
$EXTMAX
10
1903.046
20
1145.743
30
0
  9
$LTSCALE
40
5.000
  9
$DIMSCALE
40
5.000
  9
$PDMODE
70
0
  9
$PDSIZE
40
40
0
ENDSEC
0
SECTION
2
TABLES
0
TABLE
2
LTYPE
70
9
0
LTYPE
5
1f4
2
CONTINUOUS
70
0
3
実線
72
65
73
0
40
0.0
0
LTYPE
5
1f5
2
DOT
70
0
3
--  --  --  --  --  --  --  --     
72
65
73
2
40
5.000
49
1.000
49
-4.000
0
LTYPE
5
1f6
2
DASHED
70
0
3
----    ----    ----    ----    
72
65
73
2
40
5.000
49
2.000
49
-3.000
0
LTYPE
5
1f7
2
DASHED2
70
0
3
------  ------  ------  ------ 
72
65
73
2
40
10.000
49
4.000
49
-6.000
0
LTYPE
5
1f8
2
CENTER
70
0
3
----- - ----- - ----- - ----- - 
72
65
73
4
40
9.000
49
6.000
49
-1.000
49
1.000
49
-1.000
0
LTYPE
5
1f9
2
CENTER2
70
0
3
----------  --  ----------  -- 
72
65
73
4
40
18.000
49
12.000
49
-2.000
49
2.000
49
-2.000
0
LTYPE
5
1fa
2
PHANTOM
70
0
3
--- - - --- - - --- - - --- - -
72
65
73
6
40
10.000
49
5.000
49
-1.000
49
1.000
49
-1.000
49
1.000
49
-1.000
0
LTYPE
5
1fb
2
PHANTOM2
70
0
3
--------  -  -  --------  -  -
72
65
73
6
40
16.000
49
6.000
49
-2.000
49
2.000
49
-2.000
49
2.000
49
-2.000
0
LTYPE
5
1fc
2
HIDDEN
70
0
3
-   -   -   -   -   -   -   -   
72
65
73
2
40
2.500
49
0.500
49
-2.000
0
ENDTAB
0
TABLE
2
STYLE
70
1
0
STYLE
5
1fd
100
AcDbSymbolTableRecord
100
AcDbTextStyleTableRecord
2
STANDARD
70
0
40
0.0
41
1.0
50
0.0
71
0
42
0.0
3
txt.shx
4
extfont.shx
0
STYLE
5
1fe
100
AcDbSymbolTableRecord
100
AcDbTextStyleTableRecord
2
TATEGAKI
70
4
40
0.0
41
1.0
50
0.0
71
0
42
0.0
3
txt.shx
4
extfont.shx
0
STYLE
5
1ff
100
AcDbSymbolTableRecord
100
AcDbTextStyleTableRecord
2
MT
70
0
40
0.0
41
1.0
50
0.0
71
0
42
0.0
3
MS Mincho
4

0
STYLE
5
200
100
AcDbSymbolTableRecord
100
AcDbTextStyleTableRecord
2
TMT
70
4
40
0.0
41
1.0
50
0.0
71
0
42
0.0
3
@MS Mincho
4

0
ENDTAB
0
TABLE
2
LAYER
5
7e3
100
AcDbSymbolTable
70
10
0
LAYER
5
7e4
100
AcDbSymbolTableRecord
100
AcDbLayerTableRecord
2
0
70
64
62
  7
  6
CONTINUOUS
0
LAYER
5
7e5
100
AcDbSymbolTableRecord
100
AcDbLayerTableRecord
2
0-0
70
64
62
  7
  6
CONTINUOUS
0
LAYER
5
7e6
100
AcDbSymbolTableRecord
100
AcDbLayerTableRecord
2
0-1
70
64
62
  7
  6
CONTINUOUS
0
LAYER
5
7e7
100
AcDbSymbolTableRecord
100
AcDbLayerTableRecord
2
ADD_LINE
70
64
62
  -7
  6
CONTINUOUS
0
ENDTAB
0
ENDSEC
0
SECTION
2
ENTITIES
0
LINE
5
7e8
8
0-0
6
CONTINUOUS
62
  7
10
900.000
20
691.149
30
0.0
11
900.000
21
906.149
31
0.0
0
LINE
5
7e9
8
0-0
6
CONTINUOUS
62
  7
10
900.000
20
906.149
30
0.0
11
1187.000
21
906.149
31
0.0
0
LINE
5
7ea
8
0-0
6
CONTINUOUS
62
  7
10
1187.000
20
906.149
30
0.0
11
1187.000
21
691.149
31
0.0
0
LINE
5
7eb
8
0-0
6
CONTINUOUS
62
  7
10
1187.000
20
691.149
30
0.0
11
900.000
21
691.149
31
0.0
0
LINE
5
7ec
8
0-0
6
CONTINUOUS
62
  7
10
947.000
20
691.149
30
0.0
11
947.000
21
906.149
31
0.0
0
LINE
5
7ed
8
0-0
6
CONTINUOUS
62
  7
10
1172.000
20
897.149
30
0.0
11
1177.000
21
897.149
31
0.0
0
LINE
5
7ee
8
0-0
6
CONTINUOUS
62
  7
10
1172.000
20
897.149
30
0.0
11
1172.000
21
700.149
31
0.0
0
LINE
5
7ef
8
0-0
6
CONTINUOUS
62
  7
10
1172.000
20
700.149
30
0.0
11
1177.000
21
700.149
31
0.0
0
LINE
5
7f0
8
0-0
6
CONTINUOUS
62
  7
10
1177.000
20
897.149
30
0.0
11
1177.000
21
700.149
31
0.0
0
LINE
5
7f1
8
0-0
6
CONTINUOUS
62
  7
10
1187.000
20
383.378
30
0.0
11
1187.000
21
328.378
31
0.0
0
LINE
5
7f2
8
0-0
6
CONTINUOUS
62
  7
10
922.000
20
328.378
30
0.0
11
1187.000
21
328.378
31
0.0
0
LINE
5
7f3
8
0-0
6
CONTINUOUS
62
  7
10
922.000
20
353.378
30
0.0
11
922.000
21
328.378
31
0.0
0
LINE
5
7f4
8
0-0
6
CONTINUOUS
62
  7
10
900.000
20
383.378
30
0.0
11
900.000
21
353.378
31
0.0
0
LINE
5
7f5
8
0-0
6
CONTINUOUS
62
  7
10
900.000
20
353.378
30
0.0
11
922.000
21
353.378
31
0.0
0
LINE
5
7f6
8
0-0
6
CONTINUOUS
62
  7
10
947.000
20
353.378
30
0.0
11
1187.000
21
353.378
31
0.0
0
LINE
5
7f7
8
0-0
6
CONTINUOUS
62
  7
10
947.000
20
383.378
30
0.0
11
947.000
21
353.378
31
0.0
0
LINE
5
7f8
8
0-0
6
CONTINUOUS
62
  7
10
1172.000
20
383.378
30
0.0
11
1172.000
21
361.378
31
0.0
0
LINE
5
7f9
8
0-0
6
CONTINUOUS
62
  7
10
1172.000
20
361.378
30
0.0
11
1177.000
21
361.378
31
0.0
0
LINE
5
7fa
8
0-0
6
CONTINUOUS
62
  7
10
1177.000
20
383.378
30
0.0
11
1177.000
21
361.378
31
0.0
0
LINE
5
7fb
8
0-0
6
CONTINUOUS
62
  7
10
947.000
20
383.378
30
0.0
11
1172.000
21
383.378
31
0.0
0
LINE
5
7fc
8
0-0
6
CONTINUOUS
62
  7
10
1177.000
20
383.378
30
0.0
11
1187.000
21
383.378
31
0.0
0
LINE
5
7fd
8
0-0
6
CONTINUOUS
62
  7
10
1415.797
20
691.149
30
0.0
11
1440.797
21
691.149
31
0.0
0
LINE
5
7fe
8
0-0
6
CONTINUOUS
62
  7
10
1415.797
20
906.149
30
0.0
11
1440.797
21
906.149
31
0.0
0
LINE
5
7ff
8
0-0
6
CONTINUOUS
62
  7
10
679.311
20
906.149
30
0.0
11
654.311
21
906.149
31
0.0
0
LINE
5
800
8
0-0
6
CONTINUOUS
62
  7
10
679.311
20
906.149
30
0.0
11
709.311
21
906.149
31
0.0
0
LINE
5
801
8
0-0
6
CONTINUOUS
62
  7
10
709.311
20
691.149
30
0.0
11
654.311
21
691.149
31
0.0
0
LINE
5
802
8
0-0
6
CONTINUOUS
62
  7
10
654.311
20
1143.243
30
0.0
11
709.311
21
1143.243
31
0.0
0
LINE
5
803
8
0-0
6
CONTINUOUS
62
  7
10
654.311
20
981.081
30
0.0
11
654.311
21
1143.243
31
0.0
0
LINE
5
804
8
0-0
6
CONTINUOUS
62
  7
10
709.311
20
981.081
30
0.0
11
709.311
21
1143.243
31
0.0
0
LINE
5
805
8
0-0
6
CONTINUOUS
62
  7
10
900.000
20
1143.243
30
0.0
11
1187.000
21
1143.243
31
0.0
0
LINE
5
806
8
0-0
6
CONTINUOUS
62
  7
10
900.000
20
981.081
30
0.0
11
900.000
21
1143.243
31
0.0
0
LINE
5
807
8
0-0
6
CONTINUOUS
62
  7
10
1187.000
20
981.081
30
0.0
11
1187.000
21
1143.243
31
0.0
0
LINE
5
808
8
0-0
6
CONTINUOUS
62
  7
10
1415.797
20
1143.243
30
0.0
11
1440.797
21
1143.243
31
0.0
0
LINE
5
809
8
0-0
6
CONTINUOUS
62
  7
10
1415.797
20
981.081
30
0.0
11
1415.797
21
1143.243
31
0.0
0
LINE
5
80a
8
0-0
6
CONTINUOUS
62
  7
10
1440.797
20
981.081
30
0.0
11
1440.797
21
1143.243
31
0.0
0
LINE
5
80b
8
0-0
6
CONTINUOUS
62
  7
10
900.000
20
1090.541
30
0.0
11
947.000
21
1090.541
31
0.0
0
LINE
5
80c
8
0-0
6
CONTINUOUS
62
  7
10
900.000
20
981.081
30
0.0
11
900.000
21
1090.541
31
0.0
0
LINE
5
80d
8
0-0
6
CONTINUOUS
62
  7
10
947.000
20
981.081
30
0.0
11
947.000
21
1090.541
31
0.0
0
LINE
5
80e
8
0-0
6
CONTINUOUS
62
  7
10
947.000
20
1090.541
30
0.0
11
1187.000
21
1090.541
31
0.0
0
LINE
5
80f
8
0-0
6
CONTINUOUS
62
  7
10
1187.000
20
981.081
30
0.0
11
1187.000
21
1090.541
31
0.0
0
LINE
5
810
8
0-0
6
CONTINUOUS
62
  7
10
508.365
20
906.149
30
0.0
11
508.365
21
691.149
31
0.0
0
LINE
5
811
8
0-0
6
CONTINUOUS
62
  7
10
617.824
20
906.149
30
0.0
11
508.365
21
906.149
31
0.0
0
LINE
5
812
8
0-0
6
CONTINUOUS
62
  7
10
617.824
20
691.149
30
0.0
11
508.365
21
691.149
31
0.0
0
LINE
5
813
8
0-0
6
CONTINUOUS
62
  7
10
751.608
20
328.378
30
0.0
11
751.608
21
403.378
31
0.0
0
LINE
5
814
8
0-0
6
CONTINUOUS
62
  7
10
861.068
20
328.378
30
0.0
11
751.608
21
328.378
31
0.0
0
LINE
5
815
8
0-0
6
CONTINUOUS
62
  7
10
861.068
20
403.378
30
0.0
11
751.608
21
403.378
31
0.0
0
LINE
5
816
8
0-0
6
CONTINUOUS
62
  7
10
790.615
20
328.378
30
0.0
11
790.615
21
353.378
31
0.0
0
LINE
5
817
8
0-0
6
CONTINUOUS
62
  7
10
861.068
20
328.378
30
0.0
11
790.615
21
328.378
31
0.0
0
LINE
5
818
8
0-0
6
CONTINUOUS
62
  7
10
861.068
20
353.378
30
0.0
11
790.615
21
353.378
31
0.0
0
LINE
5
819
8
0-0
6
CONTINUOUS
62
  7
10
790.615
20
353.378
30
0.0
11
790.615
21
403.378
31
0.0
0
LINE
5
81a
8
0-0
6
CONTINUOUS
62
  7
10
861.068
20
403.378
30
0.0
11
790.615
21
403.378
31
0.0
0
LINE
5
81b
8
0-0
6
CONTINUOUS
62
  7
10
1307.014
20
906.149
30
0.0
11
1307.014
21
691.149
31
0.0
0
LINE
5
81c
8
0-0
6
CONTINUOUS
62
  7
10
1242.149
20
906.149
30
0.0
11
1307.014
21
906.149
31
0.0
0
LINE
5
81d
8
0-0
6
CONTINUOUS
62
  7
10
1242.149
20
691.149
30
0.0
11
1307.014
21
691.149
31
0.0
0
LINE
5
81e
8
0-0
6
CONTINUOUS
62
  7
10
1307.014
20
383.378
30
0.0
11
1307.014
21
328.378
31
0.0
0
LINE
5
81f
8
0-0
6
CONTINUOUS
62
  7
10
1242.149
20
383.378
30
0.0
11
1307.014
21
383.378
31
0.0
0
LINE
5
820
8
0-0
6
CONTINUOUS
62
  7
10
1242.149
20
328.378
30
0.0
11
1307.014
21
328.378
31
0.0
0
LINE
5
821
8
0-0
6
CONTINUOUS
62
  7
10
1273.485
20
328.378
30
0.0
11
1273.485
21
353.378
31
0.0
0
LINE
5
822
8
0-0
6
CONTINUOUS
62
  7
10
1242.149
20
328.378
30
0.0
11
1273.485
21
328.378
31
0.0
0
LINE
5
823
8
0-0
6
CONTINUOUS
62
  7
10
1242.149
20
353.378
30
0.0
11
1273.485
21
353.378
31
0.0
0
LINE
5
824
8
0-0
6
CONTINUOUS
62
  7
10
1273.485
20
353.378
30
0.0
11
1273.485
21
383.378
31
0.0
0
LINE
5
825
8
0-0
6
CONTINUOUS
62
  7
10
1242.149
20
383.378
30
0.0
11
1273.485
21
383.378
31
0.0
0
LINE
5
826
8
0-0
6
CONTINUOUS
62
  7
10
900.000
20
170.270
30
0.0
11
922.000
21
170.270
31
0.0
0
LINE
5
827
8
0-0
6
CONTINUOUS
62
  7
10
900.000
20
283.784
30
0.0
11
900.000
21
170.270
31
0.0
0
LINE
5
828
8
0-0
6
CONTINUOUS
62
  7
10
922.000
20
283.784
30
0.0
11
922.000
21
170.270
31
0.0
0
LINE
5
829
8
0-0
6
CONTINUOUS
62
  7
10
922.000
20
170.270
30
0.0
11
1187.000
21
170.270
31
0.0
0
LINE
5
82a
8
0-0
6
CONTINUOUS
62
  7
10
1187.000
20
283.784
30
0.0
11
1187.000
21
170.270
31
0.0
0
LINE
5
82b
8
ADD_LINE
6
HIDDEN
62
  3
10
879.730
20
798.649
30
0.0
11
1224.324
21
798.649
31
0.0
0
CIRCLE
5
82c
8
0-0
6
CONTINUOUS
62
  7
10
987.000
20
813.649
30
0.0
40
3.000
0
CIRCLE
5
82d
8
0-0
6
CONTINUOUS
62
  7
10
987.000
20
783.649
30
0.0
40
3.000
0
ARC
5
82e
8
0-0
6
CONTINUOUS
62
  7
10
923.500
20
379.572
30
0.0
40
23.806
50
9.200165
51
170.799820
0
ARC
5
82f
8
0-0
6
CONTINUOUS
62
  7
10
923.500
20
345.636
30
0.0
40
24.743
50
18.235672
51
161.764282
0
ARC
5
830
8
0-0
6
CONTINUOUS
62
  7
10
1174.500
20
383.927
30
0.0
40
2.559
50
192.370789
51
347.629211
0
ARC
5
831
8
0-0
6
CONTINUOUS
62
  7
10
1659.422
20
798.649
30
0.0
40
243.624
50
153.816116
51
206.183884
0
ARC
5
832
8
0-0
6
CONTINUOUS
62
  7
10
1593.402
20
798.649
30
0.0
40
207.604
50
148.814392
51
211.185608
0
ARC
5
833
8
0-0
6
CONTINUOUS
62
  7
10
435.687
20
798.649
30
0.0
40
243.624
50
333.816101
51
386.183899
0
ARC
5
834
8
0-0
6
CONTINUOUS
62
  7
10
501.707
20
798.649
30
0.0
40
207.604
50
328.814392
51
391.185608
0
ARC
5
835
8
0-0
6
CONTINUOUS
62
  7
10
430.405
20
798.649
30
0.0
40
298.906
50
338.921631
51
21.078369
0
CIRCLE
5
836
8
ADD_LINE
6
HIDDEN
62
  3
10
900.000
20
798.649
30
0.0
40
3.000
0
TEXT
5
837
100
AcDbEntity
8
0-0
62
7
100
AcDbText
10
675.561
20
1145.743
30
0.0
40
9.750
41
0.800
50
0.000
1
55
100
AcDbText
0
TEXT
5
838
100
AcDbEntity
8
0-0
62
7
100
AcDbText
10
1034.125
20
1145.743
30
0.0
40
9.750
41
0.800
50
0.000
1
287
100
AcDbText
0
TEXT
5
839
100
AcDbEntity
8
0-0
62
7
100
AcDbText
10
1422.047
20
1145.743
30
0.0
40
9.750
41
0.800
50
0.000
1
25
100
AcDbText
0
TEXT
5
83a
100
AcDbEntity
8
0-0
62
7
100
AcDbText
10
917.250
20
1093.041
30
0.0
40
9.750
41
0.800
50
0.000
1
47
100
AcDbText
0
TEXT
5
83b
100
AcDbEntity
8
0-0
62
7
100
AcDbText
10
1057.625
20
1093.041
30
0.0
40
9.750
41
0.800
50
0.000
1
240
100
AcDbText
0
TEXT
5
83c
100
AcDbEntity
8
0-0
62
7
100
AcDbText
10
505.865
20
789.274
30
0.0
40
9.750
41
0.800
50
90.000
1
215
100
AcDbText
0
TEXT
5
83d
100
AcDbEntity
8
0-0
62
7
100
AcDbText
10
749.108
20
359.628
30
0.0
40
9.750
41
0.800
50
90.000
1
75
100
AcDbText
0
TEXT
5
83e
100
AcDbEntity
8
0-0
62
7
100
AcDbText
10
788.115
20
334.628
30
0.0
40
9.750
41
0.800
50
90.000
1
25
100
AcDbText
0
TEXT
5
83f
100
AcDbEntity
8
0-0
62
7
100
AcDbText
10
788.115
20
372.128
30
0.0
40
9.750
41
0.800
50
90.000
1
50
100
AcDbText
0
TEXT
5
840
100
AcDbEntity
8
0-0
62
7
100
AcDbText
10
1304.514
20
789.274
30
0.0
40
9.750
41
0.800
50
90.000
1
215
100
AcDbText
0
TEXT
5
841
100
AcDbEntity
8
0-0
62
7
100
AcDbText
10
1304.514
20
349.628
30
0.0
40
9.750
41
0.800
50
90.000
1
55
100
AcDbText
0
TEXT
5
842
100
AcDbEntity
8
0-0
62
7
100
AcDbText
10
1270.985
20
334.628
30
0.0
40
9.750
41
0.800
50
90.000
1
25
100
AcDbText
0
TEXT
5
843
100
AcDbEntity
8
0-0
62
7
100
AcDbText
10
1270.985
20
362.128
30
0.0
40
9.750
41
0.800
50
90.000
1
30
100
AcDbText
0
TEXT
5
844
100
AcDbEntity
8
0-0
62
7
100
AcDbText
10
904.750
20
172.770
30
0.0
40
9.750
41
0.800
50
0.000
1
22
100
AcDbText
0
TEXT
5
845
100
AcDbEntity
8
0-0
62
7
100
AcDbText
10
1045.125
20
172.770
30
0.0
40
9.750
41
0.800
50
0.000
1
265
100
AcDbText
0
POINT
5
846
8
0-0
62
  7
10
654.311
20
1143.243
30
0.0
0
POINT
5
847
8
0-0
62
  7
10
709.311
20
1143.243
30
0.0
0
POINT
5
848
8
0-0
62
  7
10
900.000
20
1143.243
30
0.0
0
POINT
5
849
8
0-0
62
  7
10
1187.000
20
1143.243
30
0.0
0
POINT
5
84a
8
0-0
62
  7
10
1415.797
20
1143.243
30
0.0
0
POINT
5
84b
8
0-0
62
  7
10
1440.797
20
1143.243
30
0.0
0
POINT
5
84c
8
0-0
62
  7
10
900.000
20
1090.541
30
0.0
0
POINT
5
84d
8
0-0
62
  7
10
947.000
20
1090.541
30
0.0
0
POINT
5
84e
8
0-0
62
  7
10
1187.000
20
1090.541
30
0.0
0
POINT
5
84f
8
0-0
62
  7
10
508.365
20
906.149
30
0.0
0
POINT
5
850
8
0-0
62
  7
10
508.365
20
691.149
30
0.0
0
POINT
5
851
8
0-0
62
  7
10
751.608
20
328.378
30
0.0
0
POINT
5
852
8
0-0
62
  7
10
751.608
20
403.378
30
0.0
0
POINT
5
853
8
0-0
62
  7
10
790.615
20
328.378
30
0.0
0
POINT
5
854
8
0-0
62
  7
10
790.615
20
353.378
30
0.0
0
POINT
5
855
8
0-0
62
  7
10
790.615
20
403.378
30
0.0
0
POINT
5
856
8
0-0
62
  7
10
1307.014
20
906.149
30
0.0
0
POINT
5
857
8
0-0
62
  7
10
1307.014
20
691.149
30
0.0
0
POINT
5
858
8
0-0
62
  7
10
1307.014
20
383.378
30
0.0
0
POINT
5
859
8
0-0
62
  7
10
1307.014
20
328.378
30
0.0
0
POINT
5
85a
8
0-0
62
  7
10
1273.485
20
328.378
30
0.0
0
POINT
5
85b
8
0-0
62
  7
10
1273.485
20
353.378
30
0.0
0
POINT
5
85c
8
0-0
62
  7
10
1273.485
20
383.378
30
0.0
0
POINT
5
85d
8
0-0
62
  7
10
900.000
20
170.270
30
0.0
0
POINT
5
85e
8
0-0
62
  7
10
922.000
20
170.270
30
0.0
0
POINT
5
85f
8
0-0
62
  7
10
1187.000
20
170.270
30
0.0
0
ENDSEC
0
EOF
