0
SECTION
2
HEADER
  9
$EXTMIN
10
0
20
0
30
0
  9
$EXTMAX
10
1508.324
20
1277.987
30
0
  9
$LTSCALE
40
5.000
  9
$DIMSCALE
40
5.000
  9
$PDMODE
70
0
  9
$PDSIZE
40
40
0
ENDSEC
0
SECTION
2
TABLES
0
TABLE
2
LTYPE
70
9
0
LTYPE
5
1f4
2
CONTINUOUS
70
0
3
実線
72
65
73
0
40
0.0
0
LTYPE
5
1f5
2
DOT
70
0
3
--  --  --  --  --  --  --  --     
72
65
73
2
40
5.000
49
1.000
49
-4.000
0
LTYPE
5
1f6
2
DASHED
70
0
3
----    ----    ----    ----    
72
65
73
2
40
5.000
49
2.000
49
-3.000
0
LTYPE
5
1f7
2
DASHED2
70
0
3
------  ------  ------  ------ 
72
65
73
2
40
10.000
49
4.000
49
-6.000
0
LTYPE
5
1f8
2
CENTER
70
0
3
----- - ----- - ----- - ----- - 
72
65
73
4
40
9.000
49
6.000
49
-1.000
49
1.000
49
-1.000
0
LTYPE
5
1f9
2
CENTER2
70
0
3
----------  --  ----------  -- 
72
65
73
4
40
18.000
49
12.000
49
-2.000
49
2.000
49
-2.000
0
LTYPE
5
1fa
2
PHANTOM
70
0
3
--- - - --- - - --- - - --- - -
72
65
73
6
40
10.000
49
5.000
49
-1.000
49
1.000
49
-1.000
49
1.000
49
-1.000
0
LTYPE
5
1fb
2
PHANTOM2
70
0
3
--------  -  -  --------  -  -
72
65
73
6
40
16.000
49
6.000
49
-2.000
49
2.000
49
-2.000
49
2.000
49
-2.000
0
LTYPE
5
1fc
2
HIDDEN
70
0
3
-   -   -   -   -   -   -   -   
72
65
73
2
40
2.500
49
0.500
49
-2.000
0
ENDTAB
0
TABLE
2
STYLE
70
1
0
STYLE
5
1fd
100
AcDbSymbolTableRecord
100
AcDbTextStyleTableRecord
2
STANDARD
70
0
40
0.0
41
1.0
50
0.0
71
0
42
0.0
3
txt.shx
4
extfont.shx
0
STYLE
5
1fe
100
AcDbSymbolTableRecord
100
AcDbTextStyleTableRecord
2
TATEGAKI
70
4
40
0.0
41
1.0
50
0.0
71
0
42
0.0
3
txt.shx
4
extfont.shx
0
STYLE
5
1ff
100
AcDbSymbolTableRecord
100
AcDbTextStyleTableRecord
2
MT
70
0
40
0.0
41
1.0
50
0.0
71
0
42
0.0
3
MS Mincho
4

0
STYLE
5
200
100
AcDbSymbolTableRecord
100
AcDbTextStyleTableRecord
2
TMT
70
4
40
0.0
41
1.0
50
0.0
71
0
42
0.0
3
@MS Mincho
4

0
ENDTAB
0
TABLE
2
LAYER
5
88a
100
AcDbSymbolTable
70
10
0
LAYER
5
88b
100
AcDbSymbolTableRecord
100
AcDbLayerTableRecord
2
0
70
64
62
  7
  6
CONTINUOUS
0
LAYER
5
88c
100
AcDbSymbolTableRecord
100
AcDbLayerTableRecord
2
0-0
70
64
62
  7
  6
CONTINUOUS
0
LAYER
5
88d
100
AcDbSymbolTableRecord
100
AcDbLayerTableRecord
2
ADD_LINE
70
64
62
  -7
  6
CONTINUOUS
0
ENDTAB
0
ENDSEC
0
SECTION
2
ENTITIES
0
LINE
5
88e
8
0-0
6
CONTINUOUS
62
  7
10
863.730
20
1075.892
30
0.0
11
893.730
21
1075.892
31
0.0
0
LINE
5
88f
8
0-0
6
CONTINUOUS
62
  7
10
893.730
20
1080.892
30
0.0
11
893.730
21
1075.892
31
0.0
0
LINE
5
890
8
0-0
6
CONTINUOUS
62
  7
10
893.730
20
1080.892
30
0.0
11
1128.730
21
1080.892
31
0.0
0
LINE
5
891
8
0-0
6
CONTINUOUS
62
  7
10
863.730
20
1075.892
30
0.0
11
863.730
21
775.892
31
0.0
0
LINE
5
892
8
0-0
6
CONTINUOUS
62
  7
10
893.730
20
1075.892
30
0.0
11
1120.730
21
1075.892
31
0.0
0
LINE
5
893
8
0-0
6
CONTINUOUS
62
  7
10
863.730
20
775.892
30
0.0
11
1088.730
21
775.892
31
0.0
0
LINE
5
894
8
0-0
6
CONTINUOUS
62
  7
10
1088.730
20
775.892
30
0.0
11
1088.730
21
805.892
31
0.0
0
LINE
5
895
8
0-0
6
CONTINUOUS
62
  7
10
1088.730
20
805.892
30
0.0
11
1128.730
21
805.892
31
0.0
0
LINE
5
896
8
0-0
6
CONTINUOUS
62
  7
10
1128.730
20
1080.892
30
0.0
11
1128.730
21
805.892
31
0.0
0
LINE
5
897
8
0-0
6
CONTINUOUS
62
  7
10
1120.730
20
1075.892
30
0.0
11
1120.730
21
805.892
31
0.0
0
LINE
5
898
8
0-0
6
CONTINUOUS
62
  7
10
628.459
20
1075.892
30
0.0
11
693.459
21
1075.892
31
0.0
0
LINE
5
899
8
0-0
6
CONTINUOUS
62
  7
10
628.459
20
1075.892
30
0.0
11
609.999
21
833.892
31
0.0
0
LINE
5
89a
8
0-0
6
CONTINUOUS
62
  7
10
1381.108
20
1080.892
30
0.0
11
1361.108
21
1080.892
31
0.0
0
LINE
5
89b
8
0-0
6
CONTINUOUS
62
  7
10
1342.108
20
1075.892
30
0.0
11
1342.108
21
775.892
31
0.0
0
LINE
5
89c
8
0-0
6
CONTINUOUS
62
  7
10
1361.108
20
1080.892
30
0.0
11
1361.108
21
1076.084
31
0.0
0
LINE
5
89d
8
0-0
6
CONTINUOUS
62
  7
10
1342.108
20
1075.892
30
0.0
11
1367.108
21
1075.892
31
0.0
0
LINE
5
89e
8
0-0
6
CONTINUOUS
62
  7
10
1361.108
20
1080.892
30
0.0
11
1350.108
21
1080.892
31
0.0
0
LINE
5
89f
8
0-0
6
CONTINUOUS
62
  7
10
1350.108
20
1075.892
30
0.0
11
1350.108
21
1080.892
31
0.0
0
LINE
5
8a0
8
0-0
6
CONTINUOUS
62
  7
10
1381.108
20
1080.892
30
0.0
11
1381.108
21
785.892
31
0.0
0
LINE
5
8a1
8
0-0
6
CONTINUOUS
62
  7
10
1385.108
20
780.892
30
0.0
11
1385.108
21
775.892
31
0.0
0
LINE
5
8a2
8
0-0
6
CONTINUOUS
62
  7
10
1381.108
20
785.892
30
0.0
11
1385.108
21
780.892
31
0.0
0
LINE
5
8a3
8
0-0
6
CONTINUOUS
62
  7
10
1367.108
20
1080.892
30
0.0
11
1367.108
21
798.892
31
0.0
0
LINE
5
8a4
8
0-0
6
CONTINUOUS
62
  7
10
1342.108
20
775.892
30
0.0
11
1385.108
21
775.892
31
0.0
0
LINE
5
8a5
8
0-0
6
CONTINUOUS
62
  7
10
1367.108
20
802.600
30
0.0
11
1367.108
21
798.892
31
0.0
0
LINE
5
8a6
8
0-0
6
CONTINUOUS
62
  7
10
1370.873
20
783.833
30
0.0
11
1372.986
21
779.871
31
0.0
0
LINE
5
8a7
8
0-0
6
CONTINUOUS
62
  7
10
863.730
20
480.892
30
0.0
11
863.730
21
397.892
31
0.0
0
LINE
5
8a8
8
0-0
6
CONTINUOUS
62
  7
10
1120.730
20
480.892
30
0.0
11
1128.730
21
480.892
31
0.0
0
LINE
5
8a9
8
0-0
6
CONTINUOUS
62
  7
10
879.730
20
461.060
30
0.0
11
879.730
21
397.892
31
0.0
0
LINE
5
8aa
8
0-0
6
CONTINUOUS
62
  7
10
1120.730
20
480.892
30
0.0
11
1120.730
21
477.870
31
0.0
0
LINE
5
8ab
8
0-0
6
CONTINUOUS
62
  7
10
1128.730
20
480.892
30
0.0
11
1128.730
21
466.892
31
0.0
0
LINE
5
8ac
8
0-0
6
CONTINUOUS
62
  7
10
863.730
20
397.892
30
0.0
11
879.730
21
397.892
31
0.0
0
LINE
5
8ad
8
0-0
6
CONTINUOUS
62
  7
10
628.459
20
1275.487
30
0.0
11
693.459
21
1275.487
31
0.0
0
LINE
5
8ae
8
0-0
6
CONTINUOUS
62
  7
10
628.459
20
1145.757
30
0.0
11
628.459
21
1275.487
31
0.0
0
LINE
5
8af
8
0-0
6
CONTINUOUS
62
  7
10
693.459
20
1145.757
30
0.0
11
693.459
21
1275.487
31
0.0
0
LINE
5
8b0
8
0-0
6
CONTINUOUS
62
  7
10
863.730
20
1275.487
30
0.0
11
1128.730
21
1275.487
31
0.0
0
LINE
5
8b1
8
0-0
6
CONTINUOUS
62
  7
10
863.730
20
1145.757
30
0.0
11
863.730
21
1275.487
31
0.0
0
LINE
5
8b2
8
0-0
6
CONTINUOUS
62
  7
10
1128.730
20
1145.757
30
0.0
11
1128.730
21
1275.487
31
0.0
0
LINE
5
8b3
8
0-0
6
CONTINUOUS
62
  7
10
863.730
20
647.108
30
0.0
11
1128.730
21
647.108
31
0.0
0
LINE
5
8b4
8
0-0
6
CONTINUOUS
62
  7
10
863.730
20
744.405
30
0.0
11
863.730
21
647.108
31
0.0
0
LINE
5
8b5
8
0-0
6
CONTINUOUS
62
  7
10
1128.730
20
744.405
30
0.0
11
1128.730
21
647.108
31
0.0
0
LINE
5
8b6
8
0-0
6
CONTINUOUS
62
  7
10
863.730
20
685.117
30
0.0
11
1088.730
21
685.117
31
0.0
0
LINE
5
8b7
8
0-0
6
CONTINUOUS
62
  7
10
863.730
20
744.405
30
0.0
11
863.730
21
685.117
31
0.0
0
LINE
5
8b8
8
0-0
6
CONTINUOUS
62
  7
10
1088.730
20
744.405
30
0.0
11
1088.730
21
685.117
31
0.0
0
LINE
5
8b9
8
0-0
6
CONTINUOUS
62
  7
10
1088.730
20
685.117
30
0.0
11
1128.730
21
685.117
31
0.0
0
LINE
5
8ba
8
0-0
6
CONTINUOUS
62
  7
10
1128.730
20
744.405
30
0.0
11
1128.730
21
685.117
31
0.0
0
LINE
5
8bb
8
0-0
6
CONTINUOUS
62
  7
10
863.730
20
294.405
30
0.0
11
879.730
21
294.405
31
0.0
0
LINE
5
8bc
8
0-0
6
CONTINUOUS
62
  7
10
863.730
20
343.054
30
0.0
11
863.730
21
294.405
31
0.0
0
LINE
5
8bd
8
0-0
6
CONTINUOUS
62
  7
10
879.730
20
343.054
30
0.0
11
879.730
21
294.405
31
0.0
0
LINE
5
8be
8
0-0
6
CONTINUOUS
62
  7
10
879.730
20
294.405
30
0.0
11
1128.730
21
294.405
31
0.0
0
LINE
5
8bf
8
0-0
6
CONTINUOUS
62
  7
10
1128.730
20
343.054
30
0.0
11
1128.730
21
294.405
31
0.0
0
LINE
5
8c0
8
0-0
6
CONTINUOUS
62
  7
10
486.703
20
775.892
30
0.0
11
486.703
21
833.892
31
0.0
0
LINE
5
8c1
8
0-0
6
CONTINUOUS
62
  7
10
567.784
20
775.892
30
0.0
11
486.703
21
775.892
31
0.0
0
LINE
5
8c2
8
0-0
6
CONTINUOUS
62
  7
10
567.784
20
833.892
30
0.0
11
486.703
21
833.892
31
0.0
0
LINE
5
8c3
8
0-0
6
CONTINUOUS
62
  7
10
486.703
20
833.892
30
0.0
11
486.703
21
1075.892
31
0.0
0
LINE
5
8c4
8
0-0
6
CONTINUOUS
62
  7
10
567.784
20
1075.892
30
0.0
11
486.703
21
1075.892
31
0.0
0
LINE
5
8c5
8
0-0
6
CONTINUOUS
62
  7
10
1265.081
20
775.892
30
0.0
11
1265.081
21
1080.892
31
0.0
0
LINE
5
8c6
8
0-0
6
CONTINUOUS
62
  7
10
1167.784
20
775.892
30
0.0
11
1265.081
21
775.892
31
0.0
0
LINE
5
8c7
8
0-0
6
CONTINUOUS
62
  7
10
1167.784
20
1080.892
30
0.0
11
1265.081
21
1080.892
31
0.0
0
LINE
5
8c8
8
0-0
6
CONTINUOUS
62
  7
10
1232.649
20
775.892
30
0.0
11
1232.649
21
805.892
31
0.0
0
LINE
5
8c9
8
0-0
6
CONTINUOUS
62
  7
10
1167.784
20
775.892
30
0.0
11
1232.649
21
775.892
31
0.0
0
LINE
5
8ca
8
0-0
6
CONTINUOUS
62
  7
10
1167.784
20
805.892
30
0.0
11
1232.649
21
805.892
31
0.0
0
LINE
5
8cb
8
0-0
6
CONTINUOUS
62
  7
10
1232.649
20
805.892
30
0.0
11
1232.649
21
1080.892
31
0.0
0
LINE
5
8cc
8
0-0
6
CONTINUOUS
62
  7
10
1167.784
20
1080.892
30
0.0
11
1232.649
21
1080.892
31
0.0
0
LINE
5
8cd
8
0-0
6
CONTINUOUS
62
  7
10
1508.324
20
775.892
30
0.0
11
1508.324
21
1080.892
31
0.0
0
LINE
5
8ce
8
0-0
6
CONTINUOUS
62
  7
10
1427.243
20
775.892
30
0.0
11
1508.324
21
775.892
31
0.0
0
LINE
5
8cf
8
0-0
6
CONTINUOUS
62
  7
10
1427.243
20
1080.892
30
0.0
11
1508.324
21
1080.892
31
0.0
0
LINE
5
8d0
8
0-0
6
CONTINUOUS
62
  7
10
738.054
20
397.892
30
0.0
11
738.054
21
480.892
31
0.0
0
LINE
5
8d1
8
0-0
6
CONTINUOUS
62
  7
10
823.189
20
397.892
30
0.0
11
738.054
21
397.892
31
0.0
0
LINE
5
8d2
8
0-0
6
CONTINUOUS
62
  7
10
823.189
20
480.892
30
0.0
11
738.054
21
480.892
31
0.0
0
LINE
5
8d3
8
0-0
6
CONTINUOUS
62
  7
10
674.999
20
833.892
30
0.0
11
609.999
21
833.892
31
0.0
0
LINE
5
8d4
8
0-0
6
CONTINUOUS
62
  7
10
674.999
20
833.892
30
0.0
11
674.999
21
775.892
31
0.0
0
LINE
5
8d5
8
0-0
6
CONTINUOUS
62
  7
10
693.459
20
775.892
30
0.0
11
674.999
21
775.892
31
0.0
0
LINE
5
8d6
8
0-0
6
CONTINUOUS
62
  7
10
609.999
20
647.108
30
0.0
11
693.459
21
647.108
31
0.0
0
LINE
5
8d7
8
0-0
6
CONTINUOUS
62
  7
10
609.999
20
744.405
30
0.0
11
609.999
21
647.108
31
0.0
0
LINE
5
8d8
8
0-0
6
CONTINUOUS
62
  7
10
693.459
20
744.405
30
0.0
11
693.459
21
647.108
31
0.0
0
LINE
5
8d9
8
0-0
6
CONTINUOUS
62
  7
10
609.999
20
685.117
30
0.0
11
674.999
21
685.117
31
0.0
0
LINE
5
8da
8
0-0
6
CONTINUOUS
62
  7
10
609.999
20
744.405
30
0.0
11
609.999
21
685.117
31
0.0
0
LINE
5
8db
8
0-0
6
CONTINUOUS
62
  7
10
674.999
20
744.405
30
0.0
11
674.999
21
685.117
31
0.0
0
LINE
5
8dc
8
0-0
6
CONTINUOUS
62
  7
10
674.999
20
685.117
30
0.0
11
693.459
21
685.117
31
0.0
0
LINE
5
8dd
8
0-0
6
CONTINUOUS
62
  7
10
693.459
20
744.405
30
0.0
11
693.459
21
685.117
31
0.0
0
LINE
5
8de
8
ADD_LINE
6
HIDDEN
62
  3
10
1088.730
20
553.069
30
0.0
11
1088.730
21
395.525
31
0.0
0
LINE
5
8df
8
ADD_LINE
6
HIDDEN
62
  3
10
850.874
20
441.892
30
0.0
11
906.402
21
441.892
31
0.0
0
LINE
5
8e0
8
0-0
6
CONTINUOUS
62
  7
10
863.730
20
581.131
30
0.0
11
1088.730
21
581.131
31
0.0
0
LINE
5
8e1
8
0-0
6
CONTINUOUS
62
  7
10
863.730
20
504.448
30
0.0
11
863.730
21
581.131
31
0.0
0
LINE
5
8e2
8
0-0
6
CONTINUOUS
62
  7
10
1088.730
20
504.448
30
0.0
11
1088.730
21
581.131
31
0.0
0
LINE
5
8e3
8
0-0
6
CONTINUOUS
62
  7
10
693.459
20
1075.892
30
0.0
11
693.459
21
775.892
31
0.0
0
CIRCLE
5
8e4
8
0-0
6
CONTINUOUS
62
  7
10
953.730
20
1060.892
30
0.0
40
3.000
0
CIRCLE
5
8e5
8
0-0
6
CONTINUOUS
62
  7
10
1053.730
20
1060.892
30
0.0
40
3.000
0
CIRCLE
5
8e6
8
0-0
6
CONTINUOUS
62
  7
10
893.730
20
865.892
30
0.0
40
3.000
0
CIRCLE
5
8e7
8
0-0
6
CONTINUOUS
62
  7
10
893.730
20
845.892
30
0.0
40
3.000
0
ARC
5
8e8
8
0-0
6
CONTINUOUS
62
  7
10
1405.063
20
800.381
30
0.0
40
37.984
50
182.246185
51
205.826172
0
ARC
5
8e9
8
0-0
6
CONTINUOUS
62
  7
10
1381.156
20
785.971
30
0.0
40
10.195
50
216.747940
51
261.324615
0
ARC
5
8ea
8
0-0
6
CONTINUOUS
62
  7
10
996.230
20
805.518
30
0.0
40
363.626
50
248.630203
51
291.369812
0
ARC
5
8eb
8
0-0
6
CONTINUOUS
62
  7
10
996.230
20
819.517
30
0.0
40
363.625
50
248.630188
51
290.022278
0
CIRCLE
5
8ec
8
ADD_LINE
6
HIDDEN
62
  3
10
879.730
20
441.892
30
0.0
40
3.000
0
TEXT
5
8ed
100
AcDbEntity
8
0-0
62
7
100
AcDbText
10
654.709
20
1277.987
30
0.0
40
9.750
41
0.800
50
0.000
1
65
100
AcDbText
0
TEXT
5
8ee
100
AcDbEntity
8
0-0
62
7
100
AcDbText
10
986.855
20
1277.987
30
0.0
40
9.750
41
0.800
50
0.000
1
265
100
AcDbText
0
TEXT
5
8ef
100
AcDbEntity
8
0-0
62
7
100
AcDbText
10
986.855
20
649.608
30
0.0
40
9.750
41
0.800
50
0.000
1
265
100
AcDbText
0
TEXT
5
8f0
100
AcDbEntity
8
0-0
62
7
100
AcDbText
10
966.855
20
687.617
30
0.0
40
9.750
41
0.800
50
0.000
1
225
100
AcDbText
0
TEXT
5
8f1
100
AcDbEntity
8
0-0
62
7
100
AcDbText
10
1102.480
20
687.617
30
0.0
40
9.750
41
0.800
50
0.000
1
40
100
AcDbText
0
TEXT
5
8f2
100
AcDbEntity
8
0-0
62
7
100
AcDbText
10
865.480
20
296.905
30
0.0
40
9.750
41
0.800
50
0.000
1
16
100
AcDbText
0
TEXT
5
8f3
100
AcDbEntity
8
0-0
62
7
100
AcDbText
10
994.855
20
296.905
30
0.0
40
9.750
41
0.800
50
0.000
1
249
100
AcDbText
0
TEXT
5
8f4
100
AcDbEntity
8
0-0
62
7
100
AcDbText
10
484.203
20
798.642
30
0.0
40
9.750
41
0.800
50
90.000
1
58
100
AcDbText
0
TEXT
5
8f5
100
AcDbEntity
8
0-0
62
7
100
AcDbText
10
484.203
20
945.517
30
0.0
40
9.750
41
0.800
50
90.000
1
242
100
AcDbText
0
TEXT
5
8f6
100
AcDbEntity
8
0-0
62
7
100
AcDbText
10
1262.581
20
919.017
30
0.0
40
9.750
41
0.800
50
90.000
1
305
100
AcDbText
0
TEXT
5
8f7
100
AcDbEntity
8
0-0
62
7
100
AcDbText
10
1230.149
20
784.642
30
0.0
40
9.750
41
0.800
50
90.000
1
30
100
AcDbText
0
TEXT
5
8f8
100
AcDbEntity
8
0-0
62
7
100
AcDbText
10
1230.149
20
934.017
30
0.0
40
9.750
41
0.800
50
90.000
1
275
100
AcDbText
0
TEXT
5
8f9
100
AcDbEntity
8
0-0
62
7
100
AcDbText
10
1505.824
20
919.017
30
0.0
40
9.750
41
0.800
50
90.000
1
305
100
AcDbText
0
TEXT
5
8fa
100
AcDbEntity
8
0-0
62
7
100
AcDbText
10
735.554
20
433.142
30
0.0
40
9.750
41
0.800
50
90.000
1
83
100
AcDbText
0
TEXT
5
8fb
100
AcDbEntity
8
0-0
62
7
100
AcDbText
10
645.479
20
649.608
30
0.0
40
9.750
41
0.800
50
0.000
1
83
100
AcDbText
0
TEXT
5
8fc
100
AcDbEntity
8
0-0
62
7
100
AcDbText
10
636.249
20
687.617
30
0.0
40
9.750
41
0.800
50
0.000
1
65
100
AcDbText
0
TEXT
5
8fd
100
AcDbEntity
8
0-0
62
7
100
AcDbText
10
677.979
20
687.617
30
0.0
40
9.750
41
0.800
50
0.000
1
18
100
AcDbText
0
TEXT
5
8fe
100
AcDbEntity
8
0-0
62
7
100
AcDbText
10
966.855
20
583.631
30
0.0
40
9.750
41
0.800
50
0.000
1
225
100
AcDbText
0
POINT
5
8ff
8
0-0
62
  7
10
628.459
20
1275.487
30
0.0
0
POINT
5
900
8
0-0
62
  7
10
693.459
20
1275.487
30
0.0
0
POINT
5
901
8
0-0
62
  7
10
863.730
20
1275.487
30
0.0
0
POINT
5
902
8
0-0
62
  7
10
1128.730
20
1275.487
30
0.0
0
POINT
5
903
8
0-0
62
  7
10
863.730
20
647.108
30
0.0
0
POINT
5
904
8
0-0
62
  7
10
1128.730
20
647.108
30
0.0
0
POINT
5
905
8
0-0
62
  7
10
863.730
20
685.117
30
0.0
0
POINT
5
906
8
0-0
62
  7
10
1088.730
20
685.117
30
0.0
0
POINT
5
907
8
0-0
62
  7
10
1128.730
20
685.117
30
0.0
0
POINT
5
908
8
0-0
62
  7
10
863.730
20
294.405
30
0.0
0
POINT
5
909
8
0-0
62
  7
10
879.730
20
294.405
30
0.0
0
POINT
5
90a
8
0-0
62
  7
10
1128.730
20
294.405
30
0.0
0
POINT
5
90b
8
0-0
62
  7
10
486.703
20
775.892
30
0.0
0
POINT
5
90c
8
0-0
62
  7
10
486.703
20
833.892
30
0.0
0
POINT
5
90d
8
0-0
62
  7
10
486.703
20
1075.892
30
0.0
0
POINT
5
90e
8
0-0
62
  7
10
1265.081
20
775.892
30
0.0
0
POINT
5
90f
8
0-0
62
  7
10
1265.081
20
1080.892
30
0.0
0
POINT
5
910
8
0-0
62
  7
10
1232.649
20
775.892
30
0.0
0
POINT
5
911
8
0-0
62
  7
10
1232.649
20
805.892
30
0.0
0
POINT
5
912
8
0-0
62
  7
10
1232.649
20
1080.892
30
0.0
0
POINT
5
913
8
0-0
62
  7
10
1508.324
20
775.892
30
0.0
0
POINT
5
914
8
0-0
62
  7
10
1508.324
20
1080.892
30
0.0
0
POINT
5
915
8
0-0
62
  7
10
738.054
20
397.892
30
0.0
0
POINT
5
916
8
0-0
62
  7
10
738.054
20
480.892
30
0.0
0
POINT
5
917
8
0-0
62
  7
10
609.999
20
647.108
30
0.0
0
POINT
5
918
8
0-0
62
  7
10
693.459
20
647.108
30
0.0
0
POINT
5
919
8
0-0
62
  7
10
609.999
20
685.117
30
0.0
0
POINT
5
91a
8
0-0
62
  7
10
674.999
20
685.117
30
0.0
0
POINT
5
91b
8
0-0
62
  7
10
693.459
20
685.117
30
0.0
0
POINT
5
91c
8
0-0
62
  7
10
863.730
20
581.131
30
0.0
0
POINT
5
91d
8
0-0
62
  7
10
1088.730
20
581.131
30
0.0
0
ENDSEC
0
EOF
