0
SECTION
2
HEADER
  9
$EXTMIN
10
0
20
0
30
0
  9
$EXTMAX
10
1611.389
20
1299.797
30
0
  9
$LTSCALE
40
5.000
  9
$DIMSCALE
40
5.000
  9
$PDMODE
70
0
  9
$PDSIZE
40
40
0
ENDSEC
0
SECTION
2
TABLES
0
TABLE
2
LTYPE
70
9
0
LTYPE
5
1f4
2
CONTINUOUS
70
0
3
実線
72
65
73
0
40
0.0
0
LTYPE
5
1f5
2
DOT
70
0
3
--  --  --  --  --  --  --  --     
72
65
73
2
40
5.000
49
1.000
49
-4.000
0
LTYPE
5
1f6
2
DASHED
70
0
3
----    ----    ----    ----    
72
65
73
2
40
5.000
49
2.000
49
-3.000
0
LTYPE
5
1f7
2
DASHED2
70
0
3
------  ------  ------  ------ 
72
65
73
2
40
10.000
49
4.000
49
-6.000
0
LTYPE
5
1f8
2
CENTER
70
0
3
----- - ----- - ----- - ----- - 
72
65
73
4
40
9.000
49
6.000
49
-1.000
49
1.000
49
-1.000
0
LTYPE
5
1f9
2
CENTER2
70
0
3
----------  --  ----------  -- 
72
65
73
4
40
18.000
49
12.000
49
-2.000
49
2.000
49
-2.000
0
LTYPE
5
1fa
2
PHANTOM
70
0
3
--- - - --- - - --- - - --- - -
72
65
73
6
40
10.000
49
5.000
49
-1.000
49
1.000
49
-1.000
49
1.000
49
-1.000
0
LTYPE
5
1fb
2
PHANTOM2
70
0
3
--------  -  -  --------  -  -
72
65
73
6
40
16.000
49
6.000
49
-2.000
49
2.000
49
-2.000
49
2.000
49
-2.000
0
LTYPE
5
1fc
2
HIDDEN
70
0
3
-   -   -   -   -   -   -   -   
72
65
73
2
40
2.500
49
0.500
49
-2.000
0
ENDTAB
0
TABLE
2
STYLE
70
1
0
STYLE
5
1fd
100
AcDbSymbolTableRecord
100
AcDbTextStyleTableRecord
2
STANDARD
70
0
40
0.0
41
1.0
50
0.0
71
0
42
0.0
3
txt.shx
4
extfont.shx
0
STYLE
5
1fe
100
AcDbSymbolTableRecord
100
AcDbTextStyleTableRecord
2
TATEGAKI
70
4
40
0.0
41
1.0
50
0.0
71
0
42
0.0
3
txt.shx
4
extfont.shx
0
STYLE
5
1ff
100
AcDbSymbolTableRecord
100
AcDbTextStyleTableRecord
2
MT
70
0
40
0.0
41
1.0
50
0.0
71
0
42
0.0
3
MS Mincho
4

0
STYLE
5
200
100
AcDbSymbolTableRecord
100
AcDbTextStyleTableRecord
2
TMT
70
4
40
0.0
41
1.0
50
0.0
71
0
42
0.0
3
@MS Mincho
4

0
ENDTAB
0
TABLE
2
LAYER
5
146b
100
AcDbSymbolTable
70
10
0
LAYER
5
146c
100
AcDbSymbolTableRecord
100
AcDbLayerTableRecord
2
0
70
64
62
  7
  6
CONTINUOUS
0
LAYER
5
146d
100
AcDbSymbolTableRecord
100
AcDbLayerTableRecord
2
0-0
70
64
62
  7
  6
CONTINUOUS
0
LAYER
5
146e
100
AcDbSymbolTableRecord
100
AcDbLayerTableRecord
2
0-1
70
64
62
  7
  6
CONTINUOUS
0
LAYER
5
146f
100
AcDbSymbolTableRecord
100
AcDbLayerTableRecord
2
0-2
70
64
62
  7
  6
CONTINUOUS
0
LAYER
5
1470
100
AcDbSymbolTableRecord
100
AcDbLayerTableRecord
2
ADD_LINE
70
64
62
  -7
  6
CONTINUOUS
0
ENDTAB
0
ENDSEC
0
SECTION
2
ENTITIES
0
LINE
5
1471
8
ADD_LINE
6
HIDDEN
62
  3
10
332.432
20
968.919
30
0.0
11
1593.243
21
968.919
31
0.0
0
LINE
5
1472
8
0-0
6
CONTINUOUS
62
  7
10
1086.487
20
1081.419
30
0.0
11
1086.487
21
856.419
31
0.0
0
LINE
5
1473
8
0-0
6
CONTINUOUS
62
  7
10
858.487
20
1081.419
30
0.0
11
1086.487
21
1081.419
31
0.0
0
LINE
5
1474
8
0-0
6
CONTINUOUS
62
  7
10
858.487
20
856.419
30
0.0
11
1086.487
21
856.419
31
0.0
0
LINE
5
1475
8
0-0
6
CONTINUOUS
62
  7
10
1072.487
20
861.419
30
0.0
11
1078.487
21
861.419
31
0.0
0
LINE
5
1476
8
0-0
6
CONTINUOUS
62
  7
10
1078.487
20
1076.419
30
0.0
11
1078.487
21
861.419
31
0.0
0
LINE
5
1477
8
0-0
6
CONTINUOUS
62
  7
10
1072.487
20
1076.419
30
0.0
11
1078.487
21
1076.419
31
0.0
0
LINE
5
1478
8
0-0
6
CONTINUOUS
62
  7
10
1072.487
20
1076.419
30
0.0
11
1072.487
21
861.419
31
0.0
0
LINE
5
1479
8
0-0
6
CONTINUOUS
62
  7
10
1086.487
20
602.865
30
0.0
11
1086.487
21
514.865
31
0.0
0
LINE
5
147a
8
0-0
6
CONTINUOUS
62
  7
10
766.487
20
452.865
30
0.0
11
868.487
21
464.865
31
0.0
0
LINE
5
147b
8
0-0
6
CONTINUOUS
62
  7
10
1086.487
20
514.865
30
0.0
11
868.487
21
514.865
31
0.0
0
LINE
5
147c
8
0-0
6
CONTINUOUS
62
  7
10
868.487
20
514.865
30
0.0
11
868.487
21
464.865
31
0.0
0
LINE
5
147d
8
0-0
6
CONTINUOUS
62
  7
10
768.029
20
498.856
30
0.0
11
766.487
21
452.865
31
0.0
0
LINE
5
147e
8
0-0
6
CONTINUOUS
62
  7
10
1086.487
20
602.865
30
0.0
11
1078.487
21
602.865
31
0.0
0
LINE
5
147f
8
0-0
6
CONTINUOUS
62
  7
10
1072.487
20
602.865
30
0.0
11
858.487
21
602.865
31
0.0
0
LINE
5
1480
8
0-0
6
CONTINUOUS
62
  7
10
1072.487
20
602.865
30
0.0
11
1072.487
21
524.865
31
0.0
0
LINE
5
1481
8
0-0
6
CONTINUOUS
62
  7
10
1078.487
20
602.865
30
0.0
11
1078.487
21
524.865
31
0.0
0
LINE
5
1482
8
0-0
6
CONTINUOUS
62
  7
10
364.865
20
1081.419
30
0.0
11
364.865
21
856.419
31
0.0
0
LINE
5
1483
8
0-0
6
CONTINUOUS
62
  7
10
364.865
20
856.419
30
0.0
11
426.865
21
856.419
31
0.0
0
LINE
5
1484
8
0-0
6
CONTINUOUS
62
  7
10
364.865
20
1081.419
30
0.0
11
426.865
21
1081.419
31
0.0
0
LINE
5
1485
8
0-0
6
CONTINUOUS
62
  7
10
1467.568
20
1081.419
30
0.0
11
1462.568
21
1064.312
31
0.0
0
LINE
5
1486
8
0-0
6
CONTINUOUS
62
  7
10
1462.568
20
873.526
30
0.0
11
1467.568
21
856.419
31
0.0
0
LINE
5
1487
8
ADD_LINE
6
HIDDEN
62
  3
10
868.487
20
514.865
30
0.0
11
856.689
21
514.865
31
0.0
0
LINE
5
1488
8
ADD_LINE
6
HIDDEN
62
  3
10
868.487
20
514.865
30
0.0
11
868.487
21
528.911
31
0.0
0
LINE
5
1489
8
0-2
6
CONTINUOUS
62
  7
10
364.865
20
1297.297
30
0.0
11
514.865
21
1297.297
31
0.0
0
LINE
5
148a
8
0-2
6
CONTINUOUS
62
  7
10
364.865
20
1171.622
30
0.0
11
364.865
21
1297.297
31
0.0
0
LINE
5
148b
8
0-2
6
CONTINUOUS
62
  7
10
514.865
20
1171.622
30
0.0
11
514.865
21
1297.297
31
0.0
0
LINE
5
148c
8
0-2
6
CONTINUOUS
62
  7
10
766.487
20
1297.297
30
0.0
11
1086.487
21
1297.297
31
0.0
0
LINE
5
148d
8
0-2
6
CONTINUOUS
62
  7
10
766.487
20
1171.622
30
0.0
11
766.487
21
1297.297
31
0.0
0
LINE
5
148e
8
0-2
6
CONTINUOUS
62
  7
10
1086.487
20
1171.622
30
0.0
11
1086.487
21
1297.297
31
0.0
0
LINE
5
148f
8
0-2
6
CONTINUOUS
62
  7
10
1379.568
20
1297.297
30
0.0
11
1467.568
21
1297.297
31
0.0
0
LINE
5
1490
8
0-2
6
CONTINUOUS
62
  7
10
1379.568
20
1171.622
30
0.0
11
1379.568
21
1297.297
31
0.0
0
LINE
5
1491
8
0-2
6
CONTINUOUS
62
  7
10
1467.568
20
1171.622
30
0.0
11
1467.568
21
1297.297
31
0.0
0
LINE
5
1492
8
0-2
6
CONTINUOUS
62
  7
10
766.487
20
295.946
30
0.0
11
868.487
21
295.946
31
0.0
0
LINE
5
1493
8
0-2
6
CONTINUOUS
62
  7
10
766.487
20
389.189
30
0.0
11
766.487
21
295.946
31
0.0
0
LINE
5
1494
8
0-2
6
CONTINUOUS
62
  7
10
868.487
20
389.189
30
0.0
11
868.487
21
295.946
31
0.0
0
LINE
5
1495
8
0-2
6
CONTINUOUS
62
  7
10
868.487
20
295.946
30
0.0
11
1086.487
21
295.946
31
0.0
0
LINE
5
1496
8
0-2
6
CONTINUOUS
62
  7
10
1086.487
20
389.189
30
0.0
11
1086.487
21
295.946
31
0.0
0
LINE
5
1497
8
0-2
6
CONTINUOUS
62
  7
10
1220.270
20
1081.419
30
0.0
11
1220.270
21
856.419
31
0.0
0
LINE
5
1498
8
0-2
6
CONTINUOUS
62
  7
10
1147.297
20
1081.419
30
0.0
11
1220.270
21
1081.419
31
0.0
0
LINE
5
1499
8
0-2
6
CONTINUOUS
62
  7
10
1147.297
20
856.419
30
0.0
11
1220.270
21
856.419
31
0.0
0
LINE
5
149a
8
0-2
6
CONTINUOUS
62
  7
10
1220.270
20
602.865
30
0.0
11
1220.270
21
514.865
31
0.0
0
LINE
5
149b
8
0-2
6
CONTINUOUS
62
  7
10
1147.297
20
602.865
30
0.0
11
1220.270
21
602.865
31
0.0
0
LINE
5
149c
8
0-2
6
CONTINUOUS
62
  7
10
1147.297
20
514.865
30
0.0
11
1220.270
21
514.865
31
0.0
0
LINE
5
149d
8
0-2
6
CONTINUOUS
62
  7
10
1220.270
20
514.865
30
0.0
11
1220.270
21
464.865
31
0.0
0
LINE
5
149e
8
0-2
6
CONTINUOUS
62
  7
10
1147.297
20
464.865
30
0.0
11
1220.270
21
464.865
31
0.0
0
LINE
5
149f
8
0-2
6
CONTINUOUS
62
  7
10
1601.351
20
1081.419
30
0.0
11
1601.351
21
856.419
31
0.0
0
LINE
5
14a0
8
0-2
6
CONTINUOUS
62
  7
10
1520.270
20
1081.419
30
0.0
11
1601.351
21
1081.419
31
0.0
0
LINE
5
14a1
8
0-2
6
CONTINUOUS
62
  7
10
1520.270
20
856.419
30
0.0
11
1601.351
21
856.419
31
0.0
0
ARC
5
14a2
8
0-0
6
CONTINUOUS
62
  7
10
881.271
20
968.919
30
0.0
40
114.784
50
101.448944
51
258.551056
0
CIRCLE
5
14a3
8
0-0
6
CONTINUOUS
62
  7
10
986.487
20
968.919
30
0.0
40
3.000
0
CIRCLE
5
14a4
8
0-0
6
CONTINUOUS
62
  7
10
1011.487
20
968.919
30
0.0
40
3.000
0
ARC
5
14a5
8
0-0
6
CONTINUOUS
62
  7
10
876.373
20
495.968
30
0.0
40
108.383
50
99.499130
51
178.473007
0
ARC
5
14a6
8
0-0
6
CONTINUOUS
62
  7
10
1075.487
20
600.915
30
0.0
40
3.050
50
190.388519
51
349.611084
0
ARC
5
14a7
8
0-0
6
CONTINUOUS
62
  7
10
1075.487
20
526.093
30
0.0
40
3.242
50
202.261078
51
337.738098
0
ARC
5
14a8
8
0-0
6
CONTINUOUS
62
  7
10
398.954
20
968.919
30
0.0
40
115.911
50
283.933380
51
76.066620
0
ARC
5
14a9
8
0-0
6
CONTINUOUS
62
  7
10
1495.478
20
968.919
30
0.0
40
115.911
50
103.933365
51
256.066650
0
ARC
5
14aa
8
0-0
6
CONTINUOUS
62
  7
10
1495.478
20
968.919
30
0.0
40
100.911
50
109.034378
51
250.965637
0
CIRCLE
5
14ab
8
ADD_LINE
6
HIDDEN
62
  3
10
1086.487
20
968.919
30
0.0
40
3.000
0
CIRCLE
5
14ac
8
ADD_LINE
6
HIDDEN
62
  3
10
868.487
20
514.865
30
0.0
40
3.000
0
TEXT
5
14ad
100
AcDbEntity
8
0-2
62
7
100
AcDbText
10
430.490
20
1299.797
30
0.0
40
9.750
41
0.800
50
0.000
1
150
100
AcDbText
0
TEXT
5
14ae
100
AcDbEntity
8
0-2
62
7
100
AcDbText
10
917.112
20
1299.797
30
0.0
40
9.750
41
0.800
50
0.000
1
320
100
AcDbText
0
TEXT
5
14af
100
AcDbEntity
8
0-2
62
7
100
AcDbText
10
1417.318
20
1299.797
30
0.0
40
9.750
41
0.800
50
0.000
1
88
100
AcDbText
0
TEXT
5
14b0
100
AcDbEntity
8
0-2
62
7
100
AcDbText
10
808.112
20
298.446
30
0.0
40
9.750
41
0.800
50
0.000
1
102
100
AcDbText
0
TEXT
5
14b1
100
AcDbEntity
8
0-2
62
7
100
AcDbText
10
968.112
20
298.446
30
0.0
40
9.750
41
0.800
50
0.000
1
218
100
AcDbText
0
TEXT
5
14b2
100
AcDbEntity
8
0-2
62
7
100
AcDbText
10
1217.770
20
959.544
30
0.0
40
9.750
41
0.800
50
90.000
1
225
100
AcDbText
0
TEXT
5
14b3
100
AcDbEntity
8
0-2
62
7
100
AcDbText
10
1217.770
20
552.615
30
0.0
40
9.750
41
0.800
50
90.000
1
88
100
AcDbText
0
TEXT
5
14b4
100
AcDbEntity
8
0-2
62
7
100
AcDbText
10
1217.770
20
483.615
30
0.0
40
9.750
41
0.800
50
90.000
1
50
100
AcDbText
0
TEXT
5
14b5
100
AcDbEntity
8
0-2
62
7
100
AcDbText
10
1598.851
20
959.544
30
0.0
40
9.750
41
0.800
50
90.000
1
225
100
AcDbText
0
POINT
5
14b6
8
0-2
62
  7
10
364.865
20
1297.297
30
0.0
0
POINT
5
14b7
8
0-2
62
  7
10
514.865
20
1297.297
30
0.0
0
POINT
5
14b8
8
0-2
62
  7
10
766.487
20
1297.297
30
0.0
0
POINT
5
14b9
8
0-2
62
  7
10
1086.487
20
1297.297
30
0.0
0
POINT
5
14ba
8
0-2
62
  7
10
1379.568
20
1297.297
30
0.0
0
POINT
5
14bb
8
0-2
62
  7
10
1467.568
20
1297.297
30
0.0
0
POINT
5
14bc
8
0-2
62
  7
10
766.487
20
295.946
30
0.0
0
POINT
5
14bd
8
0-2
62
  7
10
868.487
20
295.946
30
0.0
0
POINT
5
14be
8
0-2
62
  7
10
1086.487
20
295.946
30
0.0
0
POINT
5
14bf
8
0-2
62
  7
10
1220.270
20
1081.419
30
0.0
0
POINT
5
14c0
8
0-2
62
  7
10
1220.270
20
856.419
30
0.0
0
POINT
5
14c1
8
0-2
62
  7
10
1220.270
20
602.865
30
0.0
0
POINT
5
14c2
8
0-2
62
  7
10
1220.270
20
514.865
30
0.0
0
POINT
5
14c3
8
0-2
62
  7
10
1220.270
20
464.865
30
0.0
0
POINT
5
14c4
8
0-2
62
  7
10
1601.351
20
1081.419
30
0.0
0
POINT
5
14c5
8
0-2
62
  7
10
1601.351
20
856.419
30
0.0
0
ENDSEC
0
EOF
