  0
SECTION
  2
HEADER
  9
$ACADVER
  1
AC1009
  9
$INSBASE
 10
0
 20
0
 30
0
  9
$EXTMIN
 10
0
 20
0
  9
$EXTMAX
 10
420
 20
297
  9
$LIMMIN
 10
0
 20
0
  9
$LIMMAX
 10
420
 20
297
  9
$LTSCALE
 40
1
  0
ENDSEC
  0
SECTION
  2
TABLES
  0
TABLE
  2
LTYPE
 70
     9
  0
LTYPE
  2
CONTINUOUS
 70
    64
  3
実線
 72
    65
 73
     0
 40
0.0
  0
LTYPE
  2
DASHED1
 70
    64
  3
--  --  --  --  --  --  --  --  
 72
    65
 73
     2
 40
2.5
 49
1.25
 49
-1.25
  0
LTYPE
  2
DASHED2
 70
    64
  3
----    ----    ----    ----    
 72
    65
 73
     2
 40
5.0
 49
2.5
 49
-2.5
  0
LTYPE
  2
DASHED3
 70
    64
  3
------  ------  ------  ------  
 72
    65
 73
     2
 40
5.0
 49
3.75
 49
-1.25
  0
LTYPE
  2
CENTER1
 70
    64
  3
----- - ----- - ----- - ----- - 
 72
    65
 73
     4
 40
10.0
 49
6.25
 49
-1.25
 49
1.25
 49
-1.25
  0
LTYPE
  2
CENTER2
 70
    64
  3
----------  --  ----------  --  
 72
    65
 73
     4
 40
20.0
 49
12.5
 49
-2.5
 49
2.5
 49
-2.5
  0
LTYPE
  2
PHANTOM1
 70
    64
  3
--- - - --- - - --- - - --- - - 
 72
    65
 73
     6
 40
10.0
 49
3.25
 49
-1.25
 49
1.25
 49
-1.25
 49
1.25
 49
-1.25
  0
LTYPE
  2
PHANTOM2
 70
    64
  3
--------  -  -  --------  -  -  
 72
    65
 73
     6
 40
20.0
 49
10.0
 49
-2.5
 49
1.25
 49
-2.5
 49
1.25
 49
-2.5
  0
LTYPE
  2
DOT
 70
    64
  3
-   -   -   -   -   -   -   -   
 72
    65
 73
     2
 40
2.5
 49
0.625
 49
-1.875
  0
LTYPE
  2
DUMMY
 70
    64
  3
ダミー
 72
    65
 73
     0
 40
0.0
  0
LTYPE
  2
RAND1
 70
    64
  3
ランダム線1
 72
    65
 73
     4
 40
10.0
 49
1.0
 49
-2.0
 49
3.0
 49
-4.0
  0
LTYPE
  2
RAND2
 70
    64
  3
ランダム線2
 72
    65
 73
     4
 40
14.0
 49
2.0
 49
-3.0
 49
4.0
 49
-5.0
  0
LTYPE
  2
RAND3
 70
    64
  3
ランダム線3
 72
    65
 73
     4
 40
18.0
 49
3.0
 49
-4.0
 49
5.0
 49
-6.0
  0
LTYPE
  2
RAND4
 70
    64
  3
ランダム線4
 72
    65
 73
     4
 40
22.0
 49
4.0
 49
-5.0
 49
6.0
 49
-7.0
  0
LTYPE
  2
RAND5
 70
    64
  3
ランダム線5
 72
    65
 73
     4
 40
26.0
 49
5.0
 49
-6.0
 49
7.0
 49
-8.0
  0
LTYPE
  2
LONG1
 70
    64
  3
----------  --  ----------  --  
 72
    65
 73
     4
 40
40.0
 49
32.5
 49
-2.5
 49
2.5
 49
-2.5
  0
LTYPE
  2
LONG2
 70
    64
  3
--------  -  -  --------  -  -  
 72
    65
 73
     6
 40
40.0
 49
30.0
 49
-2.5
 49
1.25
 49
-2.5
 49
1.25
 49
-2.5
  0
LTYPE
  2
LONG3
 70
    64
  3
+++++++++++++++..+++++++++++++++
 72
    65
 73
     2
 40
40.0
 49
37.5
 49
-2.5
  0
LTYPE
  2
LONG4
 70
    64
  3
+++++++++++++++..+++++++++++++++
 72
    65
 73
     2
 40
80.0
 49
75.0
 49
-5.0
  0
LTYPE
  2
LONG5
 70
    64
  3
----------  --  ----------  --  
 72
    65
 73
     4
 40
60.0
 49
37.5
 49
-7.5
 49
7.5
 49
-7.5
  0
LTYPE
  2
dashed
 70
   64
  3
-------   -------------   ------
 72
   65
 73
    2
 40
7.5
 49
6
 49
-1.5
  0
LTYPE
  2
dashed_spaced
 70
   64
  3
----        --------        ----
 72
   65
 73
    2
 40
12
 49
6
 49
-6
  0
LTYPE
  2
long_dashed_dotted
 70
   64
  3
------------- --- --------------
 72
   65
 73
    4
 40
15.25
 49
12
 49
-1.5
 49
0.25
 49
-1.5
  0
LTYPE
  2
long_dashed_double-dotted
 70
   64
  3
----------- --- --- ------------
 72
   65
 73
    6
 40
17
 49
12
 49
-1.5
 49
0.25
 49
-1.5
 49
0.25
 49
-1.5
  0
LTYPE
  2
long_dashed_triplicate-dotted
 70
   64
  3
--------- --- --- --- ----------
 72
   65
 73
    8
 40
18.75
 49
12
 49
-1.5
 49
0.25
 49
-1.5
 49
0.25
 49
-1.5
 49
0.25
 49
-1.5
  0
LTYPE
  2
dotted
 70
   64
  3
   -       -       -       -    
 72
   65
 73
    2
 40
1.75
 49
0.25
 49
-1.5
  0
LTYPE
  2
chain
 70
   64
  3
-------------- -- --------------
 72
   65
 73
    4
 40
18.5
 49
12
 49
-1.5
 49
3.5
 49
-1.5
  0
LTYPE
  2
chain_double_dash
 70
   64
  3
------------ -- -- -------------
 72
   65
 73
    6
 40
23.5
 49
12
 49
-1.5
 49
3.5
 49
-1.5
 49
3.5
 49
-1.5
  0
LTYPE
  2
dashed_dotted
 70
   64
  3
-----------     -     ----------
 72
   65
 73
    4
 40
9.25
 49
6
 49
-1.5
 49
0.25
 49
-1.5
  0
LTYPE
  2
double-dashed_dotted
 70
   64
  3
------   -----------   -   -----
 72
   65
 73
    6
 40
16.75
 49
6
 49
-1.5
 49
6
 49
-1.5
 49
0.25
 49
-1.5
  0
LTYPE
  2
dashed_double-dotted
 70
   64
  3
---------    -    -    ---------
 72
   65
 73
    6
 40
11
 49
6
 49
-1.5
 49
0.25
 49
-1.5
 49
0.25
 49
-1.5
  0
LTYPE
  2
double-dashed_double-dotted
 70
   64
  3
-----   ---------   -   -   ----
 72
   65
 73
    8
 40
18.5
 49
6
 49
-1.5
 49
6
 49
-1.5
 49
0.25
 49
-1.5
 49
0.25
 49
-1.5
  0
LTYPE
  2
dashed_triplicate-dotted
 70
   64
  3
-------    -    -    -    ------
 72
   65
 73
    8
 40
12.75
 49
6
 49
-1.5
 49
0.25
 49
-1.5
 49
0.25
 49
-1.5
 49
0.25
 49
-1.5
  0
LTYPE
  2
double-dashed_triplicate-dotted
 70
   64
  3
-----  ---------  -  -  -  -----
 72
   65
 73
   10
 40
20.25
 49
6
 49
-1.5
 49
6
 49
-1.5
 49
0.25
 49
-1.5
 49
0.25
 49
-1.5
 49
0.25
 49
-1.5
  0
LTYPE
  2
undefined
 70
   64
  3
--------------------------------
 72
   65
 73
    0
 40
0
  0
ENDTAB
  0
TABLE
  2
STYLE
  5
3
100
AcDbSymbolTable
 70
     1
  0
STYLE
  5
10
100
AcDbSymbolTableRecord
100
AcDbTextStyleTableRecord
  2
STANDARD
 70
     0
 40
0.0
 41
1.0
 50
0.0
 71
     0
 42
0.2
  3
txt
  4
bigfont.shx
  0
STYLE
  5
26
100
AcDbSymbolTableRecord
100
AcDbTextStyleTableRecord
  2
TATEGAKI
 70
    68
 40
0.0
 41
1.0
 50
0.0
 71
     0
 42
1.0
  3
txt
  4
bigfont.shx
  0
ENDTAB
  0
TABLE
  2
LAYER
 70
    8
  0
LAYER
  2
_0-0_
 70
   64
 62
    7
  6
CONTINUOUS
  0
LAYER
  2
_1-0_
 70
   64
 62
    7
  6
CONTINUOUS
  0
LAYER
  2
_1-1_
 70
   64
 62
    7
  6
CONTINUOUS
  0
LAYER
  2
_1-2_
 70
   64
 62
    7
  6
CONTINUOUS
  0
LAYER
  2
_1-3_
 70
   64
 62
    7
  6
CONTINUOUS
  0
LAYER
  2
_1-4_
 70
   64
 62
    7
  6
CONTINUOUS
  0
LAYER
  2
_1-f_
 70
   64
 62
    7
  6
CONTINUOUS
  0
LAYER
  2
ADD_LINE
 70
   64
 62
    7
  6
CONTINUOUS
  0
ENDTAB
  0
ENDSEC
  0
SECTION
  2
BLOCKS
  0
ENDSEC
  0
SECTION
  2
ENTITIES
  0
ARC
  8
_1-2_
  6
DASHED1
 62
    7
 10
92.681598147830456
 20
106.45405537373311
 40
44.629966117240286
 50
31.537139892578125
 51
53.983230590820312
  0
LINE
  8
_0-0_
  6
CONTINUOUS
 62
    5
 10
6.7567526327597136
 20
280.13513513513516
 11
406.75677325274495
 21
280.13513513513516
  0
LINE
  8
_0-0_
  6
CONTINUOUS
 62
    5
 10
371.75678150073907
 20
10.13513513513513
 11
371.75678150073907
 21
30.135133073136615
  0
LINE
  8
_0-0_
  6
CONTINUOUS
 62
    5
 10
137.02703939901818
 20
30.135133073136615
 11
137.02703939901818
 21
10.13513513513513
  0
LINE
  8
_0-0_
  6
CONTINUOUS
 62
    5
 10
214.86486486486487
 20
30.135133073136615
 11
214.86486486486487
 21
10.13513513513513
  0
LINE
  8
_0-0_
  6
CONTINUOUS
 62
    5
 10
137.02703939901818
 20
20.135134104135886
 11
214.86486486486487
 21
20.135134104135886
  0
LINE
  8
_0-0_
  6
CONTINUOUS
 62
    5
 10
396.48648648648651
 20
25.945945945945951
 11
383.91891891891896
 21
13.378379924877265
  0
LINE
  8
_1-0_
  6
CONTINUOUS
 62
    7
 10
136.26180700353675
 20
122.04753978832349
 11
365.45174263619089
 21
225.18300649282097
  0
LINE
  8
_1-0_
  6
CONTINUOUS
 62
    7
 10
160.08457080737966
 20
134.52232979439401
 11
158.60725609031886
 21
137.80523764120568
  0
LINE
  8
_1-0_
  6
CONTINUOUS
 62
    7
 10
158.60725609031886
 20
137.80523764120568
 11
162.98447892472552
 21
139.7749947212838
  0
LINE
  8
_1-0_
  6
CONTINUOUS
 62
    7
 10
162.98447892472552
 20
139.7749947212838
 11
164.46179364178633
 21
136.49207450248102
  0
LINE
  8
_1-0_
  6
CONTINUOUS
 62
    7
 10
164.46179364178633
 20
136.49207450248102
 11
160.08457080737966
 21
134.52232979439401
  0
LINE
  8
_1-0_
  6
CONTINUOUS
 62
    7
 10
158.60725609031886
 20
137.80523764120568
 11
164.46179364178633
 21
136.49207450248102
  0
LINE
  8
_1-1_
  6
CONTINUOUS
 62
    3
 10
104.40028010187923
 20
125.57420060441301
 11
105.72362538930533
 21
121.16867065429687
  0
LINE
  8
_1-1_
  6
CONTINUOUS
 62
    3
 10
106.184457314981
 20
121.7201769029772
 11
106.95062998178844
 21
121.95032068201014
  0
LINE
  8
_1-1_
  6
CONTINUOUS
 62
    3
 10
106.10672409470017
 20
121.28374254381335
 11
105.72362538930533
 21
121.16867065429687
  0
LINE
  8
_1-1_
  6
CONTINUOUS
 62
    3
 10
106.24073750263936
 20
121.53282784126901
 11
106.184457314981
 21
121.7201769029772
  0
LINE
  8
_1-1_
  6
CONTINUOUS
 62
    3
 10
107.00689779745566
 20
121.76297162030195
 11
106.95062998178844
 21
121.95032068201014
  0
LINE
  8
_1-1_
  6
CONTINUOUS
 62
    3
 10
107.44753863360431
 20
121.6865127151077
 11
107.25598309491133
 21
121.62897058435389
  0
LINE
  8
_1-1_
  6
CONTINUOUS
 62
    3
 10
107.35139589051943
 20
122.70177067937078
 11
107.58153966955237
 21
121.93558564057221
  0
LINE
  8
_1-1_
  6
CONTINUOUS
 62
    3
 10
164.00818695893159
 20
137.500094851932
 11
165.56152756149706
 21
137.96667975348396
  0
LINE
  8
_1-1_
  6
CONTINUOUS
 62
    3
 10
107.75341137035474
 20
123.44901419974663
 11
163.22380272117823
 21
140.11136441617398
  0
LINE
  8
_1-1_
  6
CONTINUOUS
 62
    3
 10
163.22380272117823
 20
140.11136441617398
 11
164.00818695893159
 21
137.500094851932
  0
LINE
  8
_1-1_
  6
CONTINUOUS
 62
    3
 10
104.40028010187923
 20
125.57420060441301
 11
161.9986291833826
 21
142.87576211465372
  0
LINE
  8
_1-1_
  6
CONTINUOUS
 62
    3
 10
161.9986291833826
 20
142.87576211465372
 11
161.82602753510346
 21
143.45040398675042
  0
LINE
  8
_1-1_
  6
CONTINUOUS
 62
    3
 10
163.74147157411318
 20
144.02577580632391
 11
165.56152756149706
 21
137.96667975348396
  0
LINE
  8
_1-1_
  6
CONTINUOUS
 62
    3
 10
161.82602753510346
 20
143.45040398675042
 11
163.74147157411318
 21
144.02577580632391
  0
LINE
  8
_1-1_
  6
CONTINUOUS
 62
    3
 10
163.91408559438347
 20
143.45113393422722
 11
163.74147157411318
 21
144.02577580632391
  0
LINE
  8
_1-0_
  6
CONTINUOUS
 62
    7
 10
207.50448278478675
 20
155.8612802866343
 11
206.02716806772594
 21
159.14420050543708
  0
LINE
  8
_1-0_
  6
CONTINUOUS
 62
    7
 10
206.02716806772594
 20
159.14420050543708
 11
210.4043909021326
 21
161.11394521352409
  0
LINE
  8
_1-0_
  6
CONTINUOUS
 62
    7
 10
210.4043909021326
 20
161.11394521352409
 11
211.88170561919341
 21
157.8310249947213
  0
LINE
  8
_1-0_
  6
CONTINUOUS
 62
    7
 10
211.88170561919341
 20
157.8310249947213
 11
207.50448278478675
 21
155.8612802866343
  0
LINE
  8
_1-0_
  6
CONTINUOUS
 62
    7
 10
206.02716806772594
 20
159.14420050543708
 11
211.88170561919341
 21
157.8310249947213
  0
LINE
  8
_1-0_
  6
CONTINUOUS
 62
    7
 10
257.82430287953969
 20
182.4529080777555
 11
259.30161759660052
 21
179.16998785895271
  0
LINE
  8
_1-0_
  6
CONTINUOUS
 62
    7
 10
259.30161759660052
 20
179.16998785895271
 11
254.92438239020271
 21
177.20024315086573
  0
LINE
  8
_1-0_
  6
CONTINUOUS
 62
    7
 10
305.24421485694683
 20
203.79187094198693
 11
306.7215295740076
 21
200.50895072318414
  0
LINE
  8
_1-0_
  6
CONTINUOUS
 62
    7
 10
306.7215295740076
 20
200.50895072318414
 11
302.34429436760979
 21
198.53920601509714
  0
LINE
  8
_1-1_
  6
CONTINUOUS
 62
    7
 10
104.40028010187923
 20
125.57420060441301
 11
100.25762403333511
 21
139.36544469884925
  0
LINE
  8
_1-2_
  6
CONTINUOUS
 62
    3
 10
211.50294948268584
 20
158.87273427602409
 11
213.32249821843328
 21
159.48455398147172
  0
LINE
  8
ADD_LINE
  6
DOT
 62
    7
 10
209.84267776076859
 20
164.11699862093539
 11
209.66998950855154
 21
164.69192504882813
  0
LINE
  8
_1-2_
  6
CONTINUOUS
 62
    3
 10
209.66998950855154
 20
164.69192504882813
 11
209.84267776076859
 21
164.11699862093539
  0
LINE
  8
_1-2_
  6
CONTINUOUS
 62
    3
 10
210.70619325380068
 20
161.24229224952492
 11
211.50552285684122
 21
158.86507601351352
  0
LINE
  8
_1-2_
  6
CONTINUOUS
 62
    3
 10
154.88937377929687
 20
141.62777462521115
 11
155.64804901947846
 21
141.88288508234797
  0
LINE
  8
_1-2_
  6
CONTINUOUS
 62
    3
 10
156.82117359058279
 20
143.12356072503167
 11
210.70619325380068
 21
161.24229224952492
  0
LINE
  8
_1-2_
  6
CONTINUOUS
 62
    3
 10
155.78166652370143
 20
141.4380625131968
 11
155.64804901947846
 21
141.88288508234797
  0
LINE
  8
_1-2_
  6
CONTINUOUS
 62
    3
 10
155.02673999683279
 20
141.17046871700802
 11
154.88937377929687
 21
141.62777462521115
  0
LINE
  8
_1-2_
  6
CONTINUOUS
 62
    3
 10
156.51113149282097
 20
141.46546647355365
 11
156.03696256070523
 21
141.3060286238387
  0
LINE
  8
_1-2_
  6
CONTINUOUS
 62
    3
 10
156.63893416121201
 20
141.71257225242823
 11
156.43777795740075
 21
142.38224338840794
  0
LINE
  8
_1-2_
  6
CONTINUOUS
 62
    3
 10
154.4247560243349
 20
140.76392508841852
 11
154.89893732844172
 21
140.92336293813347
  0
LINE
  8
_1-2_
  6
CONTINUOUS
 62
    3
 10
154.16945998733109
 20
140.89595897777662
 11
152.94146563555745
 21
144.98407312341638
  0
LINE
  8
_1-2_
  6
CONTINUOUS
 62
    3
 10
209.66998950855154
 20
164.69192504882813
 11
211.56668998099664
 21
165.32970119167018
  0
LINE
  8
_1-2_
  6
CONTINUOUS
 62
    3
 10
213.32249821843328
 20
159.48455398147172
 11
211.56668998099664
 21
165.32970119167018
  0
LINE
  8
_1-2_
  6
CONTINUOUS
 62
    7
 10
152.94146563555745
 20
144.98407312341638
 11
148.35200129328547
 21
158.63312592377534
  0
LINE
  8
_1-1_
  6
CONTINUOUS
 62
    7
 10
100.25762403333511
 20
139.36544469884925
 11
149.82433009792018
 21
154.25444319441513
  0
LINE
  8
_1-1_
  6
CONTINUOUS
 62
    7
 10
163.74147157411318
 20
144.02577580632391
 11
163.35276835673565
 21
145.31979947476773
  0
LINE
  8
_1-1_
  6
CONTINUOUS
 62
    7
 10
103.70983639278928
 20
127.87274334881758
 11
153.58149348078547
 21
142.85334406672297
  0
LINE
  8
_1-0_
  6
CONTINUOUS
 62
    7
 10
257.82430287953969
 20
182.45289570576438
 11
259.30161759660052
 21
179.16997548696159
  0
LINE
  8
_1-0_
  6
CONTINUOUS
 62
    7
 10
259.30161759660052
 20
179.16997548696159
 11
254.92438239020271
 21
177.20023077887458
  0
LINE
  8
_1-2_
  6
CONTINUOUS
 62
    3
 10
258.91378041860219
 20
180.20835670264992
 11
260.72793496621625
 21
180.83602492873734
  0
LINE
  8
ADD_LINE
  6
DOT
 62
    7
 10
257.20783130542651
 20
185.43793549408784
 11
257.03009528082771
 21
186.01132779508023
  0
LINE
  8
_1-2_
  6
CONTINUOUS
 62
    3
 10
257.03009528082771
 20
186.01132779508023
 11
257.20783130542651
 21
185.43793549408784
  0
LINE
  8
_1-2_
  6
CONTINUOUS
 62
    3
 10
258.09638770850933
 20
182.57086264120568
 11
258.91642802470443
 21
180.2007108121305
  0
LINE
  8
_1-2_
  6
CONTINUOUS
 62
    3
 10
202.45286271378802
 20
162.47001441749367
 11
203.20924913561024
 21
162.73173151789484
  0
LINE
  8
_1-2_
  6
CONTINUOUS
 62
    3
 10
204.37154821447425
 20
163.98260168127112
 11
258.09638770850933
 21
182.57086264120568
  0
LINE
  8
_1-2_
  6
CONTINUOUS
 62
    3
 10
203.34676381703972
 20
162.28809665989232
 11
203.20924913561024
 21
162.73173151789484
  0
LINE
  8
_1-2_
  6
CONTINUOUS
 62
    3
 10
202.59421271246833
 20
162.01392096442146
 11
202.45286271378802
 21
162.47001441749367
  0
LINE
  8
_1-2_
  6
CONTINUOUS
 62
    3
 10
204.07595660235432
 20
162.32185982369089
 11
203.60321044921875
 21
162.1582773569468
  0
LINE
  8
_1-2_
  6
CONTINUOUS
 62
    3
 10
204.20159417229732
 20
162.5700667097762
 11
203.99461076066302
 21
163.23795627903294
  0
LINE
  8
_1-2_
  6
CONTINUOUS
 62
    3
 10
201.99579187341641
 20
161.60213161159206
 11
202.46856277053422
 21
161.76571407833615
  0
LINE
  8
_1-2_
  6
CONTINUOUS
 62
    3
 10
257.20783130542651
 20
185.43793549408784
 11
200.47573192699537
 21
165.80917770798143
  0
LINE
  8
_1-2_
  6
CONTINUOUS
 62
    3
 10
201.73935761322846
 20
161.73193854254646
 11
200.47573192699537
 21
165.80917770798143
  0
LINE
  8
_1-2_
  6
CONTINUOUS
 62
    3
 10
260.72793496621625
 20
180.83602492873734
 11
258.92117886929901
 21
186.66563291807432
  0
LINE
  8
_1-2_
  6
CONTINUOUS
 62
    7
 10
200.47573192699537
 20
165.80917770798143
 11
195.76732326198271
 21
179.41765037742823
  0
LINE
  8
_1-2_
  6
CONTINUOUS
 62
    7
 10
197.40142822265625
 20
175.12590562975086
 11
148.35200129328547
 21
158.63312592377534
  0
LINE
  8
_1-2_
  6
CONTINUOUS
 62
    7
 10
201.14222346125425
 20
163.72353218697214
 11
152.17655491184544
 21
147.2589111328125
  0
LINE
  8
_1-2_
  6
CONTINUOUS
 62
    3
 10
209.84267776076859
 20
164.11699862093539
 11
152.94146563555745
 21
144.98407312341638
  0
LINE
  8
_1-0_
  6
CONTINUOUS
 62
    7
 10
254.92438239020271
 20
177.20024315086573
 11
253.46421525285052
 21
180.44509475295609
  0
LINE
  8
_1-0_
  6
CONTINUOUS
 62
    7
 10
254.92438239020271
 20
177.20023077887458
 11
253.46419050886826
 21
180.44508238096495
  0
LINE
  8
_1-0_
  6
CONTINUOUS
 62
    7
 10
253.46421525285052
 20
180.44509475295609
 11
259.30161759660052
 21
179.16998785895271
  0
LINE
  8
_1-2_
  6
CONTINUOUS
 62
    7
 10
211.56668998099664
 20
165.32970119167018
 11
211.22262490762247
 21
166.35300095016893
  0
LINE
  8
_1-0_
  6
CONTINUOUS
 62
    7
 10
209.66998950855154
 20
164.69192504882813
 11
209.36417863175677
 21
165.71000382706927
  0
LINE
  8
_1-0_
  6
CONTINUOUS
 62
    7
 10
305.24421485694683
 20
203.79187094198693
 11
306.7215295740076
 21
200.50895072318414
  0
LINE
  8
_1-0_
  6
CONTINUOUS
 62
    7
 10
306.7215295740076
 20
200.50895072318414
 11
302.34429436760979
 21
198.53920601509714
  0
LINE
  8
_1-0_
  6
CONTINUOUS
 62
    7
 10
305.24421485694683
 20
203.79185856999578
 11
306.7215295740076
 21
200.508938351193
  0
LINE
  8
_1-0_
  6
CONTINUOUS
 62
    7
 10
306.7215295740076
 20
200.508938351193
 11
302.34429436760979
 21
198.53919364310602
  0
LINE
  8
_1-2_
  6
CONTINUOUS
 62
    3
 10
306.33369239600933
 20
201.54731956688136
 11
308.14784694362334
 21
202.17498779296875
  0
LINE
  8
ADD_LINE
  6
DOT
 62
    7
 10
304.62774328283365
 20
206.77689835831927
 11
304.45000725823479
 21
207.35029065931167
  0
LINE
  8
_1-2_
  6
CONTINUOUS
 62
    3
 10
304.45000725823479
 20
207.35029065931167
 11
304.62774328283365
 21
206.77689835831927
  0
LINE
  8
_1-2_
  6
CONTINUOUS
 62
    3
 10
305.51629968591641
 20
203.90982550543708
 11
306.33634000211151
 21
201.53967367636193
  0
LINE
  8
_1-2_
  6
CONTINUOUS
 62
    3
 10
249.8727746911951
 20
183.80897728172511
 11
250.62917348500847
 21
184.07069438212628
  0
LINE
  8
_1-2_
  6
CONTINUOUS
 62
    3
 10
251.79144781989021
 20
185.32156454550255
 11
305.51629968591641
 21
203.90982550543708
  0
LINE
  8
_1-2_
  6
CONTINUOUS
 62
    3
 10
250.7666757944468
 20
183.62705952412375
 11
250.62917348500847
 21
184.07069438212628
  0
LINE
  8
_1-2_
  6
CONTINUOUS
 62
    3
 10
250.01413706186656
 20
183.35288382865289
 11
249.8727746911951
 21
183.80897728172511
  0
LINE
  8
_1-2_
  6
CONTINUOUS
 62
    3
 10
251.49585620777029
 20
183.66082268792232
 11
251.02312242662586
 21
183.49724022117823
  0
LINE
  8
_1-2_
  6
CONTINUOUS
 62
    3
 10
251.6215061497044
 20
183.9090295740076
 11
251.4145227380701
 21
184.57691914326438
  0
LINE
  8
_1-2_
  6
CONTINUOUS
 62
    3
 10
249.41570385082349
 20
182.94109447582349
 11
249.88848711993245
 21
183.10467694256758
  0
LINE
  8
_1-2_
  6
CONTINUOUS
 62
    3
 10
304.62774328283365
 20
206.77689835831927
 11
247.89565627639359
 21
187.14814057221284
  0
LINE
  8
_1-2_
  6
CONTINUOUS
 62
    3
 10
249.15928196262669
 20
183.07090140677789
 11
247.89565627639359
 21
187.14814057221284
  0
LINE
  8
_1-2_
  6
CONTINUOUS
 62
    3
 10
308.14784694362334
 20
202.17498779296875
 11
306.34109084670609
 21
208.00459578230576
  0
LINE
  8
_1-2_
  6
CONTINUOUS
 62
    7
 10
247.89565627639359
 20
187.14814057221284
 11
243.18722286739867
 21
200.75661324165964
  0
LINE
  8
_1-0_
  6
CONTINUOUS
 62
    7
 10
302.34429436760979
 20
198.53920601509714
 11
300.8841272302576
 21
201.7840576171875
  0
LINE
  8
_1-0_
  6
CONTINUOUS
 62
    7
 10
302.34429436760979
 20
198.53919364310602
 11
300.88410248627537
 21
201.78404524519638
  0
LINE
  8
_1-0_
  6
CONTINUOUS
 62
    7
 10
300.88410248627537
 20
201.78404524519638
 11
305.21563555743245
 21
203.77884323532518
  0
LINE
  8
_1-0_
  6
CONTINUOUS
 62
    7
 10
300.8841272302576
 20
201.7840576171875
 11
306.7215295740076
 21
200.50895072318414
  0
LINE
  8
_1-0_
  6
CONTINUOUS
 62
    7
 10
352.66415157833615
 20
225.13084617820948
 11
354.14146629539698
 21
221.84791358741555
  0
LINE
  8
_1-0_
  6
CONTINUOUS
 62
    7
 10
354.14146629539698
 20
221.84791358741555
 11
349.76423108899917
 21
219.87816887932857
  0
LINE
  8
_1-0_
  6
CONTINUOUS
 62
    7
 10
352.66415157833615
 20
225.13082143422722
 11
354.14146629539698
 21
221.84791358741555
  0
LINE
  8
_1-2_
  6
CONTINUOUS
 62
    3
 10
353.75362911739865
 20
222.88627005912164
 11
355.56778366501271
 21
223.51395065720018
  0
LINE
  8
ADD_LINE
  6
DOT
 62
    7
 10
352.04768000422297
 20
228.11586122255068
 11
351.86994397962417
 21
228.6892535235431
  0
LINE
  8
_1-2_
  6
CONTINUOUS
 62
    3
 10
351.86994397962417
 20
228.6892535235431
 11
352.04768000422297
 21
228.11586122255068
  0
LINE
  8
_1-2_
  6
CONTINUOUS
 62
    3
 10
352.93623640730578
 20
225.24877599767737
 11
353.75627672350089
 21
222.87864891258448
  0
LINE
  8
_1-2_
  6
CONTINUOUS
 62
    3
 10
297.29271141258448
 20
205.14794014595651
 11
298.04908546241558
 21
205.40965724635771
  0
LINE
  8
_1-2_
  6
CONTINUOUS
 62
    3
 10
299.21140928526182
 20
206.66052740973396
 11
352.93623640730578
 21
225.24877599767737
  0
LINE
  8
_1-2_
  6
CONTINUOUS
 62
    3
 10
298.18661251583615
 20
204.96602238835516
 11
298.04908546241558
 21
205.40965724635771
  0
LINE
  8
_1-2_
  6
CONTINUOUS
 62
    3
 10
297.43404903927365
 20
204.6918466928843
 11
297.29271141258448
 21
205.14794014595651
  0
LINE
  8
_1-2_
  6
CONTINUOUS
 62
    3
 10
298.91581767314193
 20
204.99978555215372
 11
298.44305914801521
 21
204.83620308540964
  0
LINE
  8
_1-2_
  6
CONTINUOUS
 62
    3
 10
299.04144287109375
 20
205.24799243823904
 11
298.83445945945948
 21
205.91588200749578
  0
LINE
  8
_1-2_
  6
CONTINUOUS
 62
    3
 10
296.83564057221287
 20
204.28005734005492
 11
297.30839909733953
 21
204.44363980679898
  0
LINE
  8
_1-2_
  6
CONTINUOUS
 62
    3
 10
352.04768000422297
 20
228.11586122255068
 11
295.31556825380068
 21
208.48710343644427
  0
LINE
  8
_1-2_
  6
CONTINUOUS
 62
    3
 10
296.5791939400338
 20
204.4098642710093
 11
295.31556825380068
 21
208.48710343644427
  0
LINE
  8
_1-2_
  6
CONTINUOUS
 62
    3
 10
351.86994397962417
 20
228.6892535235431
 11
353.76102756809547
 21
229.34355864653716
  0
LINE
  8
_1-2_
  6
CONTINUOUS
 62
    3
 10
355.56778366501271
 20
223.51395065720018
 11
353.76102756809547
 21
229.34355864653716
  0
LINE
  8
_1-2_
  6
CONTINUOUS
 62
    7
 10
295.31556825380068
 20
208.48710343644427
 11
290.60718433277026
 21
222.09557610589107
  0
LINE
  8
_1-2_
  6
CONTINUOUS
 62
    7
 10
349.24878919446792
 20
242.38502296241555
 11
290.60718433277026
 21
222.09557610589107
  0
LINE
  8
_1-2_
  6
CONTINUOUS
 62
    7
 10
353.76102756809547
 20
229.34355864653716
 11
349.24878919446792
 21
242.38502296241555
  0
LINE
  8
_1-2_
  6
CONTINUOUS
 62
    7
 10
353.22789372624578
 20
231.06380978146117
 11
294.53083760029563
 21
210.75518633868245
  0
LINE
  8
_1-0_
  6
CONTINUOUS
 62
    7
 10
349.76423108899917
 20
219.87816887932857
 11
348.30406395164698
 21
223.12302048141893
  0
LINE
  8
_1-0_
  6
CONTINUOUS
 62
    7
 10
349.76423108899917
 20
219.8781441353463
 11
348.30403920766474
 21
223.12302048141893
  0
LINE
  8
_1-0_
  6
CONTINUOUS
 62
    7
 10
348.30406395164698
 20
223.12302048141893
 11
354.14146629539698
 21
221.84791358741555
  0
LINE
  8
_1-2_
  6
CONTINUOUS
 62
    7
 10
244.711254222973
 20
196.35178849503802
 11
195.76732326198271
 21
179.41765037742823
  0
LINE
  8
_1-2_
  6
CONTINUOUS
 62
    7
 10
258.92117886929901
 20
186.66563291807432
 11
258.57424349398229
 21
187.6683333113387
  0
LINE
  8
_1-2_
  6
CONTINUOUS
 62
    3
 10
257.03009528082771
 20
186.01132779508023
 11
258.92120361328125
 21
186.66563291807432
  0
LINE
  8
ADD_LINE
  6
DOT
 62
    7
 10
260.72793496621625
 20
180.83602492873734
 11
258.92120361328125
 21
186.66563291807432
  0
LINE
  8
_1-2_
  6
CONTINUOUS
 62
    7
 10
257.03009528082771
 20
186.01132779508023
 11
256.71582196209886
 21
187.02534856023016
  0
LINE
  8
_1-2_
  6
CONTINUOUS
 62
    7
 10
248.5653521563556
 20
184.98731046109586
 11
199.69100127349029
 21
168.07726061021961
  0
LINE
  8
ADD_LINE
  6
DOT
 62
    7
 10
308.14784694362334
 20
202.17498779296875
 11
306.34111559068839
 21
208.00459578230576
  0
LINE
  8
_1-2_
  6
CONTINUOUS
 62
    3
 10
304.45000725823479
 20
207.35029065931167
 11
306.34111559068839
 21
208.00459578230576
  0
LINE
  8
_1-2_
  6
CONTINUOUS
 62
    7
 10
292.13119094436234
 20
217.69075135926943
 11
243.18722286739867
 21
200.75661324165964
  0
LINE
  8
_1-2_
  6
CONTINUOUS
 62
    7
 10
306.34109084670609
 20
208.00459578230576
 11
305.99415547138938
 21
209.0072961755701
  0
LINE
  8
_1-2_
  6
CONTINUOUS
 62
    7
 10
295.98526413376271
 20
206.32628569731841
 11
247.11092562288852
 21
189.41622347445102
  0
LINE
  8
_1-0_
  6
CONTINUOUS
 62
    7
 10
348.30403920766474
 20
223.12302048141893
 11
352.66407734638938
 21
225.13094515413852
  0
LINE
  8
_1-0_
  6
CONTINUOUS
 62
    7
 10
352.66407734638938
 20
225.13094515413852
 11
354.14144155141474
 21
221.84791358741555
  0
LINE
  8
_1-0_
  6
CONTINUOUS
 62
    7
 10
354.14144155141474
 20
221.84791358741555
 11
349.78642644108953
 21
219.88816544816302
  0
LINE
  8
_1-0_
  6
CONTINUOUS
 62
    7
 10
349.78642644108953
 20
219.88816544816302
 11
349.76420634501693
 21
219.87816887932857
  0
LINE
  8
_1-0_
  6
CONTINUOUS
 62
    7
 10
349.78914827913854
 20
219.88937790329393
 11
364.7951363228463
 21
226.6420601509713
  0
LINE
  8
_1-0_
  6
CONTINUOUS
 62
    7
 10
253.46419050886826
 20
180.44508238096495
 11
257.82427813555745
 21
182.45301942567568
  0
LINE
  8
_1-3_
  6
CONTINUOUS
 62
    7
 10
75.834478429845859
 20
188.0984826990076
 11
123.27412373310811
 21
209.44632865287164
  0
LINE
  8
_1-3_
  6
CONTINUOUS
 62
    7
 10
91.035919189453125
 20
154.31751560520482
 11
75.834478429845859
 21
188.0984826990076
  0
LINE
  8
_1-3_
  6
CONTINUOUS
 62
    7
 10
138.47556449271539
 20
175.66536155906886
 11
123.27412373310811
 21
209.44632865287164
  0
LINE
  8
_1-3_
  6
CONTINUOUS
 62
    7
 10
123.27412373310811
 20
209.44632865287164
 11
170.61124234586148
 21
230.74802707981419
  0
LINE
  8
_1-3_
  6
CONTINUOUS
 62
    7
 10
185.81267073347763
 20
196.96705998601141
 11
170.61122997387037
 21
230.74802707981419
  0
LINE
  8
_1-3_
  6
CONTINUOUS
 62
    7
 10
170.61124234586148
 20
230.74802707981419
 11
218.09009448902029
 21
252.11351549303211
  0
LINE
  8
_1-3_
  6
CONTINUOUS
 62
    7
 10
233.29153524862755
 20
218.33256077122044
 11
218.09009448902029
 21
252.11351549303211
  0
LINE
  8
_1-3_
  6
CONTINUOUS
 62
    7
 10
218.09009448902029
 20
252.11351549303211
 11
265.4660611539274
 21
273.432707915435
  0
LINE
  8
_1-3_
  6
CONTINUOUS
 62
    7
 10
280.66750191353464
 20
239.65172844964107
 11
265.4660611539274
 21
273.432707915435
  0
LINE
  8
_1-3_
  6
CONTINUOUS
 62
    7
 10
236.75675675675677
 20
99.898421828811237
 11
230.60372017525339
 21
99.898421828811237
  0
LINE
  8
_1-3_
  6
CONTINUOUS
 62
    7
 10
236.75675675675677
 20
106.06928644953548
 11
228.35770890519427
 21
106.06928644953548
  0
LINE
  8
_1-3_
  6
CONTINUOUS
 62
    7
 10
236.75675675675677
 20
112.01160327808277
 11
226.19488690350508
 21
112.01160327808277
  0
LINE
  8
_1-3_
  6
CONTINUOUS
 62
    7
 10
236.75675675675677
 20
118.41102806297509
 11
223.86568636507602
 21
118.41102806297509
  0
LINE
  8
_1-3_
  6
CONTINUOUS
 62
    7
 10
234.00188549144849
 20
186.83397860140414
 11
223.85551658836573
 21
214.71085831925677
  0
LINE
  8
_1-3_
  6
CONTINUOUS
 62
    7
 10
223.85551658836573
 20
214.71085831925677
 11
222.58164689347552
 21
214.71085831925677
  0
LINE
  8
_1-3_
  6
CONTINUOUS
 62
    7
 10
109.385140908731
 20
162.73802886138091
 11
106.9268510148332
 21
162.73802886138091
  0
LINE
  8
_1-3_
  6
CONTINUOUS
 62
    7
 10
119.51020524308488
 20
134.91965628959039
 11
109.385140908731
 21
162.73802886138091
  0
LINE
  8
_1-2_
  6
DASHED1
 62
    7
 10
114.31988277950803
 20
141.16949132970862
 11
118.92499769056167
 21
142.55277891416807
  0
LINE
  8
_1-3_
  6
CONTINUOUS
 62
    7
 10
127.19399117134714
 20
112.35363934491133
 11
121.39559771563556
 21
96.422684128220027
  0
LINE
  8
_1-3_
  6
CONTINUOUS
 62
    7
 10
121.39559771563556
 20
96.422684128220027
 11
119.50536779455237
 21
96.422684128220027
  0
LINE
  8
_1-3_
  6
CONTINUOUS
 62
    7
 10
209.42084235114021
 20
158.09793833139781
 11
230.60372017525339
 21
99.898421828811237
  0
LINE
  8
_1-0_
  6
CONTINUOUS
 62
    7
 10
129.3494394663218
 20
114.98926935969173
 11
366.92903260926943
 21
221.90007390202703
  0
LINE
  8
_1-0_
  6
CONTINUOUS
 62
    7
 10
139.19818775073904
 20
93.103155187658373
 11
376.77778089368667
 21
200.01394735800255
  0
LINE
  8
_1-0_
  6
CONTINUOUS
 62
    7
 10
132.76914441907729
 20
95.693002649255703
 11
136.54449462890625
 21
87.303332766971081
  0
LINE
  8
_1-0_
  6
CONTINUOUS
 62
    7
 10
136.54449462890625
 20
87.303332766971081
 11
140.92171746331292
 21
89.273083661053633
  0
LINE
  8
_1-0_
  6
CONTINUOUS
 62
    7
 10
138.17566742768159
 20
92.643022279481642
 11
138.66810979069891
 21
91.548713477882188
  0
LINE
  8
_1-0_
  6
CONTINUOUS
 62
    7
 10
139.19818775073904
 20
93.103155187658373
 11
138.17566742768159
 21
92.643022279481642
  0
LINE
  8
_1-0_
  6
CONTINUOUS
 62
    7
 10
135.42283754091005
 20
101.49283125593855
 11
139.19818775073904
 21
93.103155187658373
  0
LINE
  8
_1-0_
  6
CONTINUOUS
 62
    7
 10
139.69063011375636
 20
92.00884638605892
 11
140.92171746331292
 21
89.273083661053633
  0
LINE
  8
_1-0_
  6
CONTINUOUS
 62
    7
 10
138.66810979069891
 20
91.548713477882188
 11
377.27021088471287
 21
198.91964474239865
  0
LINE
  8
_1-0_
  6
CONTINUOUS
 62
    7
 10
137.52477697423987
 20
87.744462296769427
 11
140.341891726932
 21
90.561577049461576
  0
LINE
  8
_1-0_
  6
CONTINUOUS
 62
    7
 10
136.00959159232477
 20
88.492015116923568
 11
139.39206922376479
 21
91.874492748363608
  0
LINE
  8
_1-0_
  6
CONTINUOUS
 62
    7
 10
135.30735737568625
 20
90.05251910235431
 11
138.93743566564612
 21
93.682597392314193
  0
LINE
  8
_1-0_
  6
CONTINUOUS
 62
    7
 10
134.60513553103885
 20
91.613029273780626
 11
138.23521382099875
 21
95.243107563740509
  0
LINE
  8
_1-0_
  6
CONTINUOUS
 62
    7
 10
133.90290131440034
 20
93.173539445206927
 11
137.53297960436024
 21
96.80361773516681
  0
LINE
  8
_1-0_
  6
CONTINUOUS
 62
    7
 10
133.20066709776182
 20
94.734049616633243
 11
136.83075775971284
 21
98.364127906593126
  0
LINE
  8
_1-0_
  6
CONTINUOUS
 62
    7
 10
132.49844525311445
 20
96.294559788059544
 11
136.12852354307432
 21
99.924638078019427
  0
LINE
  8
_1-0_
  6
CONTINUOUS
 62
    7
 10
131.79621103647594
 20
97.855076145481419
 11
135.42628932643581
 21
101.48514824944574
  0
LINE
  8
_1-0_
  6
CONTINUOUS
 62
    7
 10
131.09398919182854
 20
99.415580130912161
 11
134.72406748178844
 21
103.04566460686762
  0
LINE
  8
_1-0_
  6
CONTINUOUS
 62
    7
 10
130.39175497519005
 20
100.97609648833404
 11
134.02183326514992
 21
104.60617477829392
  0
LINE
  8
_1-0_
  6
CONTINUOUS
 62
    7
 10
129.68952075855154
 20
102.53660665976035
 11
133.31959904851141
 21
106.16667876372466
  0
LINE
  8
_1-0_
  6
CONTINUOUS
 62
    7
 10
128.98729891390414
 20
104.09711683118667
 11
132.61737720386404
 21
107.72720749313767
  0
LINE
  8
_1-0_
  6
CONTINUOUS
 62
    7
 10
128.28506469726562
 20
105.65763318860854
 11
131.91514298722552
 21
109.28771147856841
  0
LINE
  8
_1-0_
  6
CONTINUOUS
 62
    7
 10
127.58283048062712
 20
107.21814954603042
 11
131.21290877058701
 21
110.84821546399917
  0
LINE
  8
_1-0_
  6
CONTINUOUS
 62
    7
 10
126.88060863597974
 20
108.77865353146116
 11
130.51068692593961
 21
112.40873182142104
  0
LINE
  8
_1-0_
  6
CONTINUOUS
 62
    7
 10
126.17837441934122
 20
110.33916988888303
 11
129.80845270930109
 21
113.96924817884292
  0
LINE
  8
_1-0_
  6
CONTINUOUS
 62
    7
 10
125.47614020270271
 20
111.89968624630491
 11
129.10621849266258
 21
115.52975216427366
  0
LINE
  8
_1-0_
  6
CONTINUOUS
 62
    7
 10
124.77391835805533
 20
113.46019023173565
 11
128.40399664801521
 21
117.09026852169553
  0
LINE
  8
ADD_LINE
  6
DOT
 62
    7
 10
3.8146722638929305
 20
226.69469060124578
 11
7.4447505538527992
 21
230.32475651921453
  0
LINE
  8
_1-0_
  6
CONTINUOUS
 62
    3
 10
139.7453143145587
 20
115.28107514252534
 11
140.11010247307854
 21
115.4452267208615
  0
LINE
  8
_1-0_
  6
CONTINUOUS
 62
    3
 10
145.03447661528716
 20
104.50216344884925
 11
144.66968845676732
 21
104.3380118705131
  0
LINE
  8
_1-0_
  6
CONTINUOUS
 62
    3
 10
137.35608487515836
 20
118.15362878747889
 11
130.79029392551732
 21
115.19902409733953
  0
LINE
  8
_1-0_
  6
CONTINUOUS
 62
    3
 10
138.67836617134714
 20
117.65206826699747
 11
139.7453143145587
 21
115.28107514252534
  0
LINE
  8
_1-0_
  6
CONTINUOUS
 62
    3
 10
138.87900275153083
 20
118.18098325987121
 11
140.11010247307854
 21
115.4452267208615
  0
LINE
  8
_1-0_
  6
CONTINUOUS
 62
    3
 10
137.55672145534206
 20
118.68254378035263
 11
130.26136656065245
 21
115.39963593354096
  0
LINE
  8
_1-0_
  6
CONTINUOUS
 62
    3
 10
145.73663659997888
 20
101.9670125600454
 11
144.66968845676732
 21
104.3380118705131
  0
LINE
  8
_1-0_
  6
CONTINUOUS
 62
    3
 10
146.26556396484375
 20
101.7663945378484
 11
145.03447661528716
 21
104.50216344884925
  0
LINE
  8
_1-0_
  6
CONTINUOUS
 62
    3
 10
138.66928512985643
 20
97.690120387721706
 11
145.23507607949747
 21
100.64473126385664
  0
LINE
  8
_1-0_
  6
CONTINUOUS
 62
    3
 10
137.34700383366766
 20
98.191674722207566
 11
130.28873340503591
 21
113.87673042915964
  0
LINE
  8
_1-0_
  6
CONTINUOUS
 62
    3
 10
137.14636725348396
 20
97.662759729333828
 11
129.75980604017104
 21
114.07734226536107
  0
LINE
  8
_1-0_
  6
CONTINUOUS
 62
    3
 10
138.46864854967274
 20
97.161205394847983
 11
145.76400344436234
 21
100.44411324165964
  0
LINE
  8
ADD_LINE
  6
DOT
 62
    3
 10
130.26136656065245
 20
115.39963593354096
 11
128.98625966664909
 21
114.82583535684122
  0
LINE
  8
ADD_LINE
  6
DOT
 62
    3
 10
129.75980604017104
 20
114.07734226536107
 11
129.1396476127006
 21
115.45548310150971
  0
LINE
  8
ADD_LINE
  6
DOT
 62
    3
 10
138.46864854967274
 20
97.161205394847983
 11
136.73664402317357
 21
96.381800883525131
  0
LINE
  8
ADD_LINE
  6
DOT
 62
    3
 10
137.14636725348396
 20
97.662759729333828
 11
137.73387599635768
 21
96.35717443517737
  0
LINE
  8
_1-0_
  6
CONTINUOUS
 62
    3
 10
303.89118916279563
 20
189.14671201963682
 11
304.25596494932432
 21
189.310863597973
  0
LINE
  8
_1-0_
  6
CONTINUOUS
 62
    3
 10
309.18033909153297
 20
178.36781269795188
 11
308.81556330500422
 21
178.20366111961573
  0
LINE
  8
_1-0_
  6
CONTINUOUS
 62
    3
 10
301.50193497941302
 20
192.01926566459039
 11
294.93614402977198
 21
189.06466097445102
  0
LINE
  8
_1-0_
  6
CONTINUOUS
 62
    3
 10
302.82422864759292
 20
191.51770514410896
 11
303.89118916279563
 21
189.14671201963682
  0
LINE
  8
_1-0_
  6
CONTINUOUS
 62
    3
 10
303.02487759976776
 20
192.04662013698271
 11
304.25596494932432
 21
189.310863597973
  0
LINE
  8
_1-0_
  6
CONTINUOUS
 62
    3
 10
301.70258393158787
 20
192.54818065746412
 11
294.40721666490714
 21
189.26527281065245
  0
LINE
  8
_1-0_
  6
CONTINUOUS
 62
    3
 10
309.88249907622469
 20
175.83265562315245
 11
308.81556330500422
 21
178.20366111961573
  0
LINE
  8
_1-0_
  6
CONTINUOUS
 62
    3
 10
310.41142644108953
 20
175.63204378695102
 11
309.18033909153297
 21
178.36781269795188
  0
LINE
  8
_1-0_
  6
CONTINUOUS
 62
    3
 10
302.81514760610219
 20
171.55576963682432
 11
309.38093855574328
 21
174.5103743269637
  0
LINE
  8
_1-0_
  6
CONTINUOUS
 62
    3
 10
301.49287868190459
 20
172.05731778531461
 11
294.43458350929058
 21
187.74236730627112
  0
LINE
  8
_1-0_
  6
CONTINUOUS
 62
    3
 10
301.29222972972974
 20
171.52840279244089
 11
293.90565614442568
 21
187.94297914247255
  0
LINE
  8
_1-0_
  6
CONTINUOUS
 62
    3
 10
302.61452339790964
 20
171.02684227195948
 11
309.90986592060813
 21
174.30975011877112
  0
LINE
  8
ADD_LINE
  6
DOT
 62
    3
 10
294.40721666490714
 20
189.26527281065245
 11
293.13213451488599
 21
188.69147223395271
  0
LINE
  8
ADD_LINE
  6
DOT
 62
    3
 10
302.61452339790964
 20
171.02684227195948
 11
300.88251887141047
 21
170.24744394663219
  0
LINE
  8
ADD_LINE
  6
DOT
 62
    3
 10
301.29222972972974
 20
171.52840279244089
 11
301.87975084459464
 21
170.22281131228885
  0
LINE
  8
_1-0_
  6
CONTINUOUS
 62
    7
 10
137.5567338273332
 20
96.750838820998737
 11
375.01952300200594
 21
203.60907477301521
  0
LINE
  8
_1-0_
  6
CONTINUOUS
 62
    7
 10
375.01952300200594
 20
203.60907477301521
 11
375.13631459828974
 21
203.66163099134292
  0
LINE
  8
_1-0_
  6
DASHED1
 62
    7
 10
302.59626233899917
 20
192.51169565561656
 11
367.09315944362334
 21
221.53529811549834
  0
LINE
  8
_1-0_
  6
DASHED1
 62
    7
 10
310.47526591532943
 20
175.00281668998102
 11
374.97216301995354
 21
204.02641914986276
  0
LINE
  8
_1-0_
  6
DASHED1
 62
    7
 10
294.93614402977198
 20
189.0646486024599
 11
301.50195972339526
 21
192.01926566459039
  0
LINE
  8
_1-0_
  6
DASHED1
 62
    7
 10
302.81517235008448
 20
171.55574489284206
 11
302.81517235008448
 21
171.5557572648332
  0
LINE
  8
_1-0_
  6
DASHED1
 62
    7
 10
146.32940343908362
 20
101.13717981286952
 11
301.72084499049834
 21
171.06331490181589
  0
LINE
  8
_1-0_
  6
DASHED1
 62
    7
 10
138.45038749076227
 20
118.64605877850508
 11
293.84184141416807
 21
188.57220623944258
  0
LINE
  8
_1-0_
  6
CONTINUOUS
 62
    7
 10
130.7253409720756
 20
66.118778538059544
 11
143.49224606075802
 21
71.863885827966641
  0
LINE
  8
_1-0_
  6
CONTINUOUS
 62
    7
 10
125.40575594515414
 20
77.940061414563985
 11
130.7253409720756
 21
66.118778538059544
  0
LINE
  8
_1-0_
  6
CONTINUOUS
 62
    7
 10
138.17266103383659
 20
83.685168704471081
 11
143.49224606075802
 21
71.863885827966641
  0
LINE
  8
_1-0_
  6
CONTINUOUS
 62
    7
 10
232.25233748152451
 20
95.368887411581511
 11
236.62526723500847
 21
95.368887411581511
  0
LINE
  8
_1-0_
  6
CONTINUOUS
 62
    7
 10
230.60372017525339
 20
99.898421828811237
 11
232.25233748152451
 21
95.368887411581511
  0
LINE
  8
_0-0_
  6
CONTINUOUS
 62
    5
 10
406.75677325274495
 20
30.135133073136615
 11
406.72213167757604
 21
30.135133073136615
  0
LINE
  8
_0-0_
  6
CONTINUOUS
 62
    5
 10
406.72213167757604
 20
30.135133073136615
 11
6.7567402607685949
 21
30.135133073136615
  0
LINE
  8
_1-3_
  6
CONTINUOUS
 62
    5
 10
6.7567402607685949
 20
10.13513513513513
 11
406.75677325274495
 21
10.13513513513513
  0
LINE
  8
_1-0_
  6
CONTINUOUS
 62
    7
 10
132.76914441907729
 20
95.693002649255703
 11
123.49490191485431
 21
116.30244487040753
  0
LINE
  8
_1-0_
  6
CONTINUOUS
 62
    7
 10
136.26180700353675
 20
122.04753978832349
 11
123.49490191485431
 21
116.30244487040753
  0
LINE
  8
_1-0_
  6
CONTINUOUS
 62
    7
 10
135.42283754091005
 20
101.49283125593855
 11
127.87212474926099
 21
118.27218957849452
  0
LINE
  8
_1-0_
  6
CONTINUOUS
 62
    7
 10
124.07168414141681
 20
115.02070658915753
 11
126.87402673669764
 21
117.82304918443835
  0
LINE
  8
_1-0_
  6
CONTINUOUS
 62
    7
 10
127.87212474926099
 20
118.27218957849452
 11
136.0794191102724
 21
121.96546399915542
  0
LINE
  8
_1-0_
  6
CONTINUOUS
 62
    7
 10
136.0794191102724
 20
121.96546399915542
 11
132.38614468961148
 21
130.17275836016682
  0
LINE
  8
_1-0_
  6
CONTINUOUS
 62
    7
 10
123.42429496146538
 20
128.15627226958404
 11
127.87212474926099
 21
118.27218957849452
  0
LINE
  8
_1-0_
  6
CONTINUOUS
 62
    7
 10
123.42429496146538
 20
128.15627226958404
 11
132.38614468961148
 21
130.17275836016682
  0
LINE
  8
_1-0_
  6
DASHED1
 62
    3
 10
136.37922957136826
 20
122.59910789695947
 11
365.26509877797724
 21
225.59771563555745
  0
LINE
  8
_1-0_
  6
DASHED1
 62
    3
 10
126.2867901776288
 20
129.02872034021325
 11
132.79464309279984
 21
130.39879463814401
  0
LINE
  8
_1-0_
  6
DASHED1
 62
    3
 10
132.79464309279984
 20
130.39879463814401
 11
136.37922957136826
 21
122.59910789695947
  0
LINE
  8
_1-0_
  6
CONTINUOUS
 62
    7
 10
136.71287742820948
 20
124.00506096917231
 11
349.78914827913854
 21
219.88937790329393
  0
LINE
  8
_1-0_
  6
CONTINUOUS
 62
    7
 10
136.71287742820948
 20
124.00506096917231
 11
136.94672043259081
 21
123.45234226536107
  0
LINE
  8
_1-0_
  6
CONTINUOUS
 62
    7
 10
136.94672043259081
 20
123.45234226536107
 11
365.04136369035052
 21
226.0949212151605
  0
LINE
  8
_1-2_
  6
DASHED1
 62
    7
 10
125.17067574165964
 20
117.05654247387037
 11
124.9583352578653
 21
117.52842258762669
  0
LINE
  8
_1-2_
  6
DASHED1
 62
    7
 10
120.56262866870777
 20
127.29667869774072
 11
114.31988277950803
 21
141.16949132970862
  0
LINE
  8
_1-0_
  6
CONTINUOUS
 62
    7
 10
120.56262866870777
 20
127.29667869774072
 11
125.17067574165964
 21
117.05654247387037
  0
LINE
  8
_1-0_
  6
CONTINUOUS
 62
    7
 10
127.87212474926099
 20
118.27218957849452
 11
132.38614468961148
 21
130.17275836016682
  0
LINE
  8
_1-0_
  6
CONTINUOUS
 62
    7
 10
123.42429496146538
 20
128.15627226958404
 11
136.0794191102724
 21
121.96546399915542
  0
ARC
  8
_1-1_
  6
CONTINUOUS
 62
    3
 10
106.04918196394637
 20
121.47529808250634
 40
0.1999999904954755
 50
286.71995544433594
 51
16.716552734374996
  0
ARC
  8
_1-1_
  6
CONTINUOUS
 62
    3
 10
107.19845333614866
 20
121.82051375105576
 40
0.1999999904954755
 50
196.71995544433597
 51
286.71757507324219
  0
ARC
  8
_1-1_
  6
CONTINUOUS
 62
    3
 10
107.38999650285051
 20
121.87805588180954
 40
0.1999999904954755
 50
286.72097778320312
 51
16.717575073242202
  0
ARC
  8
_1-1_
  6
CONTINUOUS
 62
    3
 10
107.926025390625
 20
122.87437232764992
 40
0.599999959404404
 50
106.71949768066406
 51
196.71870422363284
  0
ARC
  8
_1-2_
  6
CONTINUOUS
 62
    3
 10
157.01240745750636
 20
142.55485740867823
 40
0.599999959404404
 50
108.58587646484376
 51
196.71983337402344
  0
ARC
  8
_1-2_
  6
CONTINUOUS
 62
    3
 10
155.97320969040331
 20
141.49559227195948
 40
0.1999999904954755
 50
196.71755981445312
 51
288.5885009765625
  0
ARC
  8
_1-2_
  6
CONTINUOUS
 62
    3
 10
154.83519683013091
 20
141.11293895824537
 40
0.1999999904954755
 50
288.58401489257812
 51
16.717575073242227
  0
ARC
  8
_1-2_
  6
CONTINUOUS
 62
    3
 10
156.44737862251901
 20
141.65503012167443
 40
0.1999999904954755
 50
288.5885009765625
 51
16.719955444335923
  0
ARC
  8
_1-2_
  6
CONTINUOUS
 62
    3
 10
154.36101552602409
 20
140.95348873653927
 40
0.1999999904954755
 50
196.716552734375
 51
288.58514404296875
  0
ARC
  8
_1-2_
  6
CONTINUOUS
 62
    3
 10
204.56771850585937
 20
163.41558095571159
 40
0.599999959404404
 50
109.08587646484375
 51
197.21983337402344
  0
ARC
  8
_1-2_
  6
CONTINUOUS
 62
    3
 10
203.53782447608742
 20
162.34728426546664
 40
0.1999999904954755
 50
197.21755981445312
 51
289.0885009765625
  0
ARC
  8
_1-2_
  6
CONTINUOUS
 62
    3
 10
202.40315205342063
 20
161.95470861486487
 40
0.1999999904954755
 50
289.08401489257812
 51
17.217575073242223
  0
ARC
  8
_1-2_
  6
CONTINUOUS
 62
    3
 10
204.01054588524073
 20
162.51085436021961
 40
0.1999999904954755
 50
289.0885009765625
 51
17.219955444335916
  0
ARC
  8
_1-2_
  6
CONTINUOUS
 62
    3
 10
201.93039352829393
 20
161.79115089210305
 40
0.1999999904954755
 50
197.216552734375
 51
289.08514404296875
  0
ARC
  8
_1-2_
  6
CONTINUOUS
 62
    3
 10
251.98761811127534
 20
184.754543819943
 40
0.599999959404404
 50
109.08587646484375
 51
197.21983337402344
  0
ARC
  8
_1-2_
  6
CONTINUOUS
 62
    3
 10
250.95772408150339
 20
183.68624712969807
 40
0.1999999904954755
 50
197.21755981445312
 51
289.0885009765625
  0
ARC
  8
_1-2_
  6
CONTINUOUS
 62
    3
 10
249.82306403082771
 20
183.2936714790963
 40
0.1999999904954755
 50
289.08401489257812
 51
17.217575073242223
  0
ARC
  8
_1-2_
  6
CONTINUOUS
 62
    3
 10
251.43045786264781
 20
183.84981722445102
 40
0.1999999904954755
 50
289.0885009765625
 51
17.219955444335916
  0
ARC
  8
_1-2_
  6
CONTINUOUS
 62
    3
 10
249.35030550570102
 20
183.13011375633448
 40
0.1999999904954755
 50
197.216552734375
 51
289.08514404296875
  0
ARC
  8
_1-2_
  6
CONTINUOUS
 62
    3
 10
299.40757957664698
 20
206.09350668417443
 40
0.599999959404404
 50
109.08587646484375
 51
197.21983337402344
  0
ARC
  8
_1-2_
  6
CONTINUOUS
 62
    3
 10
298.377685546875
 20
205.02520999392948
 40
0.1999999904954755
 50
197.21755981445312
 51
289.0885009765625
  0
ARC
  8
_1-2_
  6
CONTINUOUS
 62
    3
 10
297.24300075221709
 20
204.63263434332771
 40
0.1999999904954755
 50
289.08401489257812
 51
17.217575073242223
  0
ARC
  8
_1-2_
  6
CONTINUOUS
 62
    3
 10
298.85039458403719
 20
205.18878008868245
 40
0.1999999904954755
 50
289.0885009765625
 51
17.219955444335916
  0
ARC
  8
_1-2_
  6
CONTINUOUS
 62
    3
 10
296.77024222709036
 20
204.46907662056589
 40
0.1999999904954755
 50
197.216552734375
 51
289.08514404296875
  0
ARC
  8
_1-0_
  6
CONTINUOUS
 62
    3
 10
130.67173313450169
 20
114.48770883921031
 40
0.9999999162313101
 50
114.22773742675781
 51
204.22773742675781
  0
ARC
  8
_1-0_
  6
CONTINUOUS
 62
    3
 10
131.20064812737542
 20
114.28709700300888
 40
0.9999999162313101
 50
114.22773742675781
 51
204.22773742675781
  0
ARC
  8
_1-0_
  6
CONTINUOUS
 62
    3
 10
137.7664514490076
 20
117.24170169314823
 40
0.9999999162313101
 50
24.227737426757813
 51
114.22773742675781
  0
ARC
  8
_1-0_
  6
CONTINUOUS
 62
    3
 10
137.96707565720018
 20
117.77061668602197
 40
0.9999999162313101
 50
24.227737426757813
 51
114.22773742675781
  0
ARC
  8
_1-0_
  6
CONTINUOUS
 62
    3
 10
144.82472187763938
 20
101.55665217219173
 40
0.9999999162313101
 50
294.22773742675781
 51
24.227737426757809
  0
ARC
  8
_1-0_
  6
CONTINUOUS
 62
    3
 10
145.35364924250422
 20
101.35602796399917
 40
0.9999999162313101
 50
294.22773742675781
 51
24.227737426757809
  0
ARC
  8
_1-0_
  6
CONTINUOUS
 62
    3
 10
138.25891855600719
 20
98.602041296056811
 40
0.9999999162313101
 50
204.22773742675781
 51
294.22773742675781
  0
ARC
  8
_1-0_
  6
CONTINUOUS
 62
    3
 10
138.05829434781461
 20
98.073126303183074
 40
0.9999999162313101
 50
204.22773742675781
 51
294.22773742675781
  0
ARC
  8
_1-0_
  6
CONTINUOUS
 62
    3
 10
294.8175956107475
 20
188.3533457163218
 40
0.9999999162313101
 50
114.22775268554687
 51
204.22775268554687
  0
ARC
  8
_1-0_
  6
CONTINUOUS
 62
    3
 10
295.34652297561234
 20
188.15273388012037
 40
0.9999999162313101
 50
114.22775268554687
 51
204.22775268554687
  0
ARC
  8
_1-0_
  6
CONTINUOUS
 62
    3
 10
301.91231392525339
 20
191.10733857025971
 40
0.9999999162313101
 50
24.227752685546875
 51
114.22775268554687
  0
ARC
  8
_1-0_
  6
CONTINUOUS
 62
    3
 10
302.11293813344594
 20
191.63625356313347
 40
0.9999999162313101
 50
24.227752685546875
 51
114.22775268554687
  0
ARC
  8
_1-0_
  6
CONTINUOUS
 62
    3
 10
308.97058435388516
 20
175.42228904930323
 40
0.9999999162313101
 50
294.22775268554687
 51
24.227752685546868
  0
ARC
  8
_1-0_
  6
CONTINUOUS
 62
    3
 10
309.49951171875
 20
175.22167721310177
 40
0.9999999162313101
 50
294.22775268554687
 51
24.227752685546868
  0
ARC
  8
_1-0_
  6
CONTINUOUS
 62
    3
 10
302.40479340424412
 20
172.46768435916385
 40
0.9999999162313101
 50
204.22775268554687
 51
294.22775268554687
  0
ARC
  8
_1-0_
  6
CONTINUOUS
 62
    3
 10
302.20416919605151
 20
171.93876936629013
 40
0.9999999162313101
 50
204.22775268554687
 51
294.22775268554687
  0
TEXT
  8
_0-0_
 62
    7
 10
141.89189395389042
 20
14.594594594594582
 40
2.5
 41
1
 50
0
  1
縮尺
  0
TEXT
  8
_0-0_
 62
    7
 10
377.10214563318203
 20
22.865493362014362
 40
2.5
 41
1
 50
0
  1
ＮＯ
  0
TEXT
  8
_1-0_
 62
    7
 10
169.90681828679266
 20
13.3181144095756
 40
2.5
 41
1
 50
0
  1
1/5
  0
TEXT
  8
_0-0_
 62
    7
 10
383.97877873601146
 20
17.689098667454061
 40
2.5
 41
1
 50
0
  1
Ｓ
  0
TEXT
  8
_1-3_
 62
    7
 10
240.17320375184755
 20
117.06003137536952
 40
2.5
 41
1
 50
0
  1
瓦桟
  0
TEXT
  8
_1-0_
 62
    7
 10
39.721904960838515
 20
15.395235628695104
 40
2.5
 41
1
 50
0
  1
軒先
  0
TEXT
  8
_1-0_
 62
    7
 10
48.114893629744245
 20
15.395235628695104
 40
2.5
 41
1
 50
0
  1
2
  0
TEXT
  8
_1-3_
 62
    7
 10
107.55922265954919
 20
95.545763582796667
 40
2.5
 41
1
 50
0
  1
鼻隠
  0
TEXT
  8
_1-3_
 62
    7
 10
393.29647167308912
 20
15.142440280398802
 40
2.5
 41
1
 50
0
  1
24
  0
TEXT
  8
_1-0_
 62
    7
 10
135.76370846376983
 20
68.934339626303
 40
2.5
 41
1
 50
24.227758246524974
  1
70
  0
TEXT
  8
_1-3_
 62
    7
 10
254.60637685414909
 20
93.060038798564193
 40
2.5
 41
1
 50
0
  1
Ｃ－100ｘ50ｘ20ｘ2.3
  0
TEXT
  8
_1-3_
 62
    7
 10
240.17320787584461
 20
99.060040035763308
 40
2.5
 41
1
 50
0
  1
野地板
  0
TEXT
  8
_1-3_
 62
    7
 10
254.60637273015203
 20
99.060040035763308
 40
2.5
 41
1
 50
0
  1
硬質木片セメント板
  0
TEXT
  8
_1-3_
 62
    7
 10
278.85631664379224
 20
99.060040035763308
 40
2.5
 41
1
 50
0
  1
ｔ＝18
  0
TEXT
  8
_1-3_
 62
    7
 10
97.639264625110243
 20
198.45893622475569
 40
2.5
 41
1
 50
24.227719460851628
  1
262
  0
TEXT
  8
_1-3_
 62
    7
 10
145.02764889804735
 20
219.78369708489066
 40
2.5
 41
1
 50
24.227891841336653
  1
262
  0
TEXT
  8
_1-3_
 62
    7
 10
192.43563427600341
 20
241.11729050497087
 40
2.5
 41
1
 50
24.227891841336664
  1
262
  0
TEXT
  8
_1-3_
 62
    7
 10
239.86303853577286
 20
262.45964097983233
 40
2.5
 41
1
 50
24.227969413213476
  1
262
  0
TEXT
  8
_1-3_
 62
    7
 10
101.65725089408255
 20
161.15920195708404
 40
2.5
 41
1
 50
0
  1
面戸
  0
TEXT
  8
_1-3_
 62
    7
 10
253.9823748614337
 20
117.31807399440457
 40
2.5
 41
1
 50
0
  1
１５×２１以上　（防腐処理）
  0
TEXT
  8
_1-3_
 62
    7
 10
291.29217199377115
 20
117.28210861618454
 40
2.5
 41
1
 50
0
  1
※　地域により瓦桟木の大きさは、異なります
  0
POINT
  8
_1-3_
 62
    7
 10
75.834478429845859
 20
188.0984826990076
  0
POINT
  8
_1-3_
 62
    7
 10
123.27412373310811
 20
209.44632865287164
  0
POINT
  8
_1-3_
 62
    7
 10
170.61124234586148
 20
230.74802707981419
  0
POINT
  8
_1-3_
 62
    7
 10
218.09009448902029
 20
252.11351549303211
  0
POINT
  8
_1-3_
 62
    7
 10
265.4660611539274
 20
273.432707915435
  0
POINT
  8
_1-0_
 62
    7
 10
130.7253409720756
 20
66.118778538059544
  0
POINT
  8
_1-0_
 62
    7
 10
143.49224606075802
 20
71.863885827966641
  0
TEXT
  8
_1-f_
 62
    7
 10
198.04741681224581
 20
58.57844662667047
 40
2.5
 41
1
 50
0
  1
※軒面戸の納まりには、木製、金属製、樹脂製、面戸付き軒瓦等があります。
  0
TEXT
  8
_1-f_
 62
    7
 10
200.31601518268224
 20
54.82322446504854
 40
2.5
 41
1
 50
0
  1
その他に漆喰またはモルタル仕上げもありますが、この場合は、左官仕事となります。
  0
TEXT
  8
_1-3_
 62
    7
 10
25.556194717819636
 20
20.211577544341225
 40
2.5
 41
1
 50
0
  1
鉄骨
  0
TEXT
  8
_1-3_
 62
    7
 10
240.17320787584461
 20
111.06003632416596
 40
2.5
 41
1
 50
0
  1
縦桟
  0
TEXT
  8
_1-3_
 62
    7
 10
240.17321199984167
 20
105.06004127296242
 40
2.5
 41
1
 50
0
  1
ルーフィング
  0
TEXT
  8
_1-3_
 62
    7
 10
240.17320375184755
 20
93.060038798564193
 40
2.5
 41
1
 50
0
  1
たる木
  0
TEXT
  8
_0-0_
 62
    7
 10
14.594594336844779
 20
24.324324324324323
 40
2.5
 41
1
 50
0
  1
Ｓ形
  0
TEXT
  8
_1-3_
 62
    7
 10
205.55149800068625
 20
212.88010055954393
 40
2.5
 41
1
 50
0
  1
Ｓ形　桟瓦
  0
ARC
  8
_1-4_
  6
CONTINUOUS
 62
    1
 10
92.681598147830456
 20
106.45405537373311
 40
44.629966117240286
 50
31.537139892578125
 51
53.983230590820312
  0
SOLID
  8
_1-4_
  6
CONTINUOUS
 62
    8
 10
118.92499769056167
 20
142.55277891416807
 11
114.31988277950803
 21
141.16949132970862
 12
118.92499769056167
 22
142.55277891416807
 13
125.17067574165964
 23
117.05654247387037
  0
SOLID
  8
_1-4_
  6
CONTINUOUS
 62
    8
 10
123.42429496146538
 20
128.15627226958404
 11
122.51829846386238
 21
127.88413199262624
 12
127.87212474926099
 22
118.27218957849452
 13
125.17067574165964
 23
117.05654247387037
  0
SOLID
  8
_1-4_
  6
CONTINUOUS
 62
    8
 10
122.51829846386238
 20
127.88413199262624
 11
130.59270292739672
 21
129.93522828753282
 12
122.51829846386238
 22
127.88413199262624
 13
118.92500059026696
 23
142.55277701135253
  0
ENDSEC
  0
EOF
